Neaera - Desecrators Text Guitar Tab

Learn song with the online tabulature player
Drop C Tuning

Intro:

Guitar 1
D|--------------------------------------------------------|
A|--------------------------------------------------------|
F|--------------------------------------------------------|
C|--0--8--10--12--0--7--8--12--0--5--7--12--0--3--5--12---|
G|--------------------------------------------------------|
C|--------------------------------------------------------| x8


D|--------------------------------------------------------|
A|--------------------------------------------------------|
F|--0--8--10--12--0--7--8--12--0--5--7--12--0--3--5--12---|
C|--------------------------------------------------------|
G|--------------------------------------------------------|
C|--------------------------------------------------------| x8

Guitar 2
Only the chords, you should be able to figure out the timing by yourself if you want to 
play this song ;-)

D|----------------------------------------------------------------------|
A|----------------------------------------------------------------------|
F|----------------------------------------------------------------------|
C|--0--8----3--5--0--8--3--5--------------------------------------------|
G|--0--8----3--5--0--8--3--5--------------------------------------------|
C|--0--8----3--5--0--8--3--5--5-5-8-8-10-10-3-3-5-3-55--1-1-3-3-8-7-5-3-|


Rhythm follows soon!