Nebula - Antigone Text Guitar Tab

Learn song with the online tabulature player
Band - Nebula
Song - Antigone
-----------------------------------
Tuning: Drop D

Key:        
p - pull off


 Verse:
|-----------|
|-----------|
|-----------|
|-------7-5-|
|-7-5-5-5-3-|
|-5-3-3-----|


 Chorus:
|------------------------------------|
|------------------------------------|
|---------5p3------------------------|
|-------5-----5p3---7-7-710-10-10-10-|
|-7-5-7-3---------5-5-5-58--8--8--8--|
|-5-3-5------------------------------|

Repeat as much as needed.            
That's all.