Nebula - Elevation Text Guitar Tab

Learn song with the online tabulature player
Band - Nebula
Song - Elevation

Tuning: D
Key:
h - hammer on
~ - vibrato

Verse:
|-------------------------------|
|-------------------------------|
|-------------------------------|
|-5h7-7-5h7-7-5h7-7-5-----------|
|---------------------7-6-5-----|
|---------------------------8-5-|

|---------------------------|
|---------------------------|
|---------------------------|
|-------------------------5-|
|-----------------3---5h7---|
|-3h5-5-3h5-5-3h5---5-------|

|---------------------------|
|---------------------------|
|---------------------------|
|-7~~-5~~-------------------|
|-7~~-5~~-------------------|
|-5~~-3~~-------------------|

Chorus:
|-------------------------------|
|-------------------------------|
|-------------------------------|
|-------------------------------|
|-5h7-7-5h7-7-5h7-7-6-5---------|
|-----------------------7-6-5-3-|

That's all.