Nebula - Giant Text Guitar Tab

Learn the song with the online tablature player
Artist: Nebula
Title: Giant
Album: Charged (2001)
Genre: Stoner Rock

Note: I have only tabbed the rhythm guitar. Lead guitar is too tough for me (for now).

Riffs

Riff 1
e|-----------------------------------------------------------------|
H|-----------------------------------------------------------------|
G|-----------------------------------------------------------------|
D|-----------------------------------------------------------------|
A|-----------------------------------------1-----------------------|
E|-1---3-3-3-3-3-3-1---3-3-3-3-3-3-1---3-3-----3-3-1---3-3-3-3-3-3-|

Riff 2
e|-----------------------------------------------------------------|
H|-----------------------------------------------------------------|
G|-----------------------------------------------------------------|
D|-----------------------------------------------------------------|
A|-3---3-3-3-3-3-3-1---1-1-0---0-0-----------------------1---------|
E|---------------------------------3-3---3---3-3-3-1---3-----3-----|

Riff 3a
with some kewl effects)
e|-----------------------------------------------------------------|
H|-----------------------------------------------------------------|
G|-----------------------------------------------------------------|
D|-----------------------------------------------------------------|
A|-----------------------------------------------------------------|
E|-1---------------------------------------------------------------|

e|-----------------------------------------------------------------|
H|-----------------------------------------------------------------|
G|-----------------------------------------------------------------|
D|-----------------------------------------------------------------|
A|-----------------------------------------------------------------|
E|-3---------------------------------------------------------------|

Riff 4a
e|-----------------------------------------------------------------|
H|-----------------------------------------------------------------|
G|-----------------------------------------------------------------|
D|-----------------------------------------------------------------|
A|-5---5-5-5-5-5-5-5-5---------------------------------------------|
E|-----------------------------------------------------------------|

Riff 4b
e|-----------------------------------------------------------------|
H|-----------------------------------------------------------------|
G|-----------------------------------------------------------------|
D|-----------------------------------------------------------------|
A|-5---5-5-5-5-5-5-8---8-8-8-8-7-6-5---5-5-5-5-5-5-8---8-8-8-8-7-6-|
E|-----------------------------------------------------------------|

Riff 5
e|-----------------------------------------------------------------|
H|-----------------------------------------------------------------|
G|-----------------------------------------------------------------|
D|-----------------------------------------------------------------|
A|---------1---------------3---------------1---------------3-------|
E|-1---3-3-----3-3-1---3-3-----3-3-1---3-3-----3-3-1---3-3-----3-3-|

Song Structure

Riff 1
x2) second time with cut ending

Riff 1
x4) last time with a slide down in the end

Riff 1
x2) vocals start

Riff 2
x3.5) last time only half the riff is played

Riff 3a
x3.5)
Riff 4a

Riff 1
x6)

Riff 2
x3.5)

Riff 3a
x3.5)

Riff 4b
x2) second time with cut ending

Riff 1
x8)

Riff 5
x2) second time with cut ending