Nebula - Let It Burn Text Guitar Tab

Learn the song with the online tablature player
Band - Nebula
Song - Let it Burn

Verse
|-----------------------------------------|
|-----------------------------------------|
|---------------------------------------5-|
|---------------------------------5-5h7---|
|-----------3-----------3-----5h7---------|
|-5-3h5-5-5---5-3h5-5-5---5-3-------------|

Chrous:
|---------------------------------|
|---------------------------------|
|---------------------------------|
|-7-7-77-5-7-7/10-10-7-7-5-7-7-77-|
|-5-5-55-3-5-5/8--8--5-5-3-5-5-55-|
|---------------------------------|

|------------------------------------|
|------------------------------------|
|------------------------------------|
|-7-7-77-5-7-7-10-10-7-7-12-12-12-12-|
|-5-5-55-3-5-5/8--8--5-5-10-10-10-10-|
|------------------------------------|