Nebula - To The Centre Text Guitar Tab

Learn the song with the online tablature player
To The Centre

Now at the start and at the end, he is basically playin lead parts on the pentatonic
scale on 5th fret, but i will tabbed the most basic way to play this riff.

Riff 1
and last)
|----------------------------------------------|
|----------------------------------------------|
|-8---7-----------------5----------------8---7-|
|-------5h7-7-7-5h7-5h7---5-5h7-7-7-5h7--------|
|6---5----------------------------------6---5--|
|----------------------------------------------|
At the end of that riff, this is also played.
|-5/8\5----5/10\8----|
|--------------------|
|--------------------|
|--------------------|
|--------------------|
|--------------------|

Riff 2
|----------------------------------------------|
|----------------------------------------------|
|8-7----------------5---------------------8-7--|
|8-7-5/7-7-7--7/5\7-5-5---5/7-7-7-5/7-5/7-8-7--|
|6-5-5/7-7-7--7/5\7-3-5---5/7-7-7-5/7-5/7-6-5--|
|----3/5-5-5--5/3\5---3---3/5-5-5-3/5-3/5------|
Play that as many times neccessary.

Riff 3a
|----------------------------------------------|
|----------------------------------------------|
|------7-------9-7-------7--9-7-----9-7--------|
|7/9-9-7-7/9-9-9-7-7/9-9-7------9-7----9-7-----|
|7/9-9-5-7/9-9-7-5-7/9-9-5---------------------|
|5/7-7---5/7-7-----5/7-7-----------------------|
Play riff 3a and then riff 3b twice
(ie. play riff 3a, then riff 3b then riff 3a then riff 3b)
Riff 3b
|----------------------------------------------|
|----------------------------------------------|
|------7-------9-7-------7--9-7-------7~-------|
|7/9-9-7-7/9-9-9-7-7/9-9-7------9-7-9----------|
|7/9-9-5-7/9-9-7-5-7/9-9-5---------------------|
|5/7-7---5/7-7-----5/7-7-----------------------|

Then, at 3:35, just play this :)
Riff 4
|------------------------------------------|
|------------------------------------------|
|---------------------------------8-7------|
|5/7-7----------------------------8-7------|
|5/7-7-(play this chord 14 times)-6-5------|
|3/5-5-------------------------------------|

Then play to riff 2 then riff 1.
If i ever figure out what he's actually playin in riff 1, i will post it up as soon as i can :).