Nebula - Way To Venus Text Guitar Tab

Learn the song with the online tablature player
h-Hammer on
p-pulloff
/-slide
x-Mute/dead note
b-Bend
rb-release bend
~-vibrato
.-palm muted

Annotations:
-It's the version from the "BBC Peel Sessions" album, maybe something differs
from the original, but the most should be correct
-I've only tabbed the rhythm guitar
- throughout the song eddie plays some licks;
u can do so by playing the g-minor pentatonic in the first position.
-Every "part" is one bar.
-Listen to the song to get the timing.

Intro/Chorus
Sometimes single bars are played one octave higher...
D|-------------------|-----|-------------------|-----|
A|-------------------|-----|-------------------|-----|
F|-------------------|-----|-------------------|-----|
C|-----5---5h7p5-----|---7-|-----5---5h7p5-----|---5-|
G|-5-7---7-------7-5-|-3-7-|-5-7---7-------7-5-|-3-5-|
D|-------------------|---5-|-------------------|---3-|

D|-------------------|-----|----------|---------------|
A|-------------------|-----|----------|---------------|
F|-------------------|-----|----------|---------------|
C|-----5---5h7p5-----|---7-|----------|---------------|
G|-5-7---7-------7-5-|-3-7-|-5-7-3-5-5|-7-3-5-------3-|
D|-------------------|---5-|----------|---------3-5---|

Verse

D|-------------|------------|-------------|----------|
A|-------------|------------|-------------|----------|
F|-------------|------------|-------------|-3--------|
C|-7-x-x-7-x-x-|-7-x-x-7-10-|-5-x-x-5-x-x-|-3-3------|
G|-7-x-x-7-x-x-|-7-x-x-7-10-|-5-x-x-5-x-x-|-1-3-----1|
D|-5-x-x-5-x-x-|-5-x-x-5-8--|-3-x-x-3-x-x-|---1-1h3--|

BridgeA
The chords from the 3rd bar are strummed.
Personally, I play them with more groove...
D|-----|----------|----------|----------|
A|-----|----------|----------|----------|
F|-----|----------|-88888888-|-7777-7-5-|
C|-7-7-|-7-7-7-10-|-88888888-|-7777-7-5-|
G|-7-7-|-7-7-7-10-|-66666666-|-5555-5-3-|
D|-5-5-|-5-5-5-8--|----------|----------|

BridgeA is played 3 times...
...this is the first bar for repeating 2,3
D|---------|
A|---------|
F|---------|
C|-7-7-7-5-|
G|-7-7-7-5-|
D|-5-5-5-3-|

BridgeB

D|-----|----------|----------|----------|
A|-----|----------|----------|----------|
F|-----|----------|-88888888-|-7-10-5---|
C|-7-7-|-7-7-7-10-|-88888888-|-7-10-5---|
G|-7-7-|-7-7-7-10-|-66666666-|-5-8--3---|
D|-5-5-|-5-5-5-8--|----------|----------|

Structure:

Intro
2x

Verse
4x

Chorus
2x

Solo
Bass plays the Verse riff) 2x

Verse
2x

BridgeA
3x

BridgeB
1x

Chorus
2x // repeat the last two bars several times...