Negramaro - Una Volta Tanto Text Guitar Tab

Learn song with the online tabulature player
e-----------------------------------------------------------------------|
b-----------------------------------------------------------------------|
g-----------------------------------------------------------------------|
d---6-9-11-9-------------6-9-11-9------------14-14--14-16-13-14-11------|
a------------6-9-11-11------------6-9-11-11-----------------------------|
e-----------------------------------------------------------------------|

e-----------------------------------------------------------------------|
b-----------------------------------------------------------------------|
g-----------------------------------------------------------------------|
d---14-14--14-16-13-14-11----6-9-11-9-------------6-9-11-9--------------|
a-------------------------------------6-9-11-11----------6-9-11-11------|
e-----------------------------------------------------------------------|

e-----------------------------------------------------------------------|
b-----------------------------------------------------------------------|
g-----------------------------------------------------------------------|
d--14-14--14-16-13-14-11---14-14--14-16-13-14-11------------------------|
a-----------------------------------------------------------------------|
e-----------------------------------------------------------------------|