Neil Young - Home On The Ranch Text Guitar Tab

Learn the song with the online tablature player
        Home On The Ranch by Neil Young ("WHERE THE BUFFALO ROAM"-SOUNDTRACK)
                                                                      by Neil Young

        NOTE: I missed some notes in the beginning.

        HEAVY DISTORTION

        E |-----------------------------------------|
        B |-----------------------------------------|
        G |-----------------------------------------|
        D |-------1h3-5-----------------------------|
        A |----1--------1--------1--1---------1h3---|
        E |---------------1----1----------5-3-------|

        E |-----------------------------------------------|
        B |-----------------------------------------------|
        G |-----------------------------------------------|
        D |------------0----------------------------------|
        A |--------1-3---------6-6-6---6-6-5-3-1-0-1-3-1--|
        E |--1-1-1-------6-5-3----------------------------|

        Oh, give me a home,
        Where the Buffalo Roam,
        And the deer and the antelope play,
        Where seldom is heard,
        A discouraging word,
        And the skies are not cloudy all day.

        Home, Home on the ranch

                (if you want to -but Neil doesn't- play this: A|---8-6-5-3-3/5--| )

        Where the deer and the antilope play
        Where seldom is heard,
        A discouraging word,
        And the skies are not cloudy all day

        E |------------------------------------------------------|
        B |------------------------------------------------------|
        G |------------------------------------------------------|
        D |------------------------------------------------------|
        A |----6-5-3-1-0-1-(3-1)----------------1-1-1-1-0---3----|
        E |---------------------------------1-1-----------3------|

           No, the skies are not cloudy all day

        E |------------------------------------------------------|
        B |------------------------------------------------------|
        G |------------------------------------------------------|
        D |------------------------------------------------------|
        A |------1-3-5-------6-6-6---6-6-5-3-1-0-1-3-1-----------|
        E |--1-1-------6-5-3-------------------------------------|

        E |------------8--------9-9-9--9-8-6-4-3-4-4/6-6\4-------|
        B |------9-11---9-8-6------------------------------------|
        G |--8-8-------------------------------------------------|
        D |------------------------------------------------------|
        A |------------------------------------------------------|
        E |------------------------------------------------------|

        E |--9-8-6-4-3-4-4/6-6\4---------------------------------|
        B |------------------------------------------------------|
        G |------------------------------------------------------|
        D |------------------------------------------------------|
        A |-----------------------6-5-3-1-0-1-3-1----------------|
        E |------------------------------------------------------|