Neil Young - Rockin The Free World Text Guitar Tab

Learn song with the online tabulature player
Verse and Intro

E---------------------------------------------------|
B---------------------------------------------------|
G------------------7--5-----------------------------|
D-2-2-2-2-2-2-2-2--7--5-----------------------------|
A-2-2-2-2-2-2-2-2--5--3-----------------------------|
E-0-0-0-0-0-0-0-0-----------------------------------|


Chorus

E-------------------------------------------------------|
B-------------------------------------------------------|
G-----------7-7-7-7-7-7---5--5-55---5--4----------------|
D--5-5-5-5--7-7-7-7-7-7---5--5-55---5--4---2------------|       2x
A--5-5-5-5--5-5-5-5-5-5---3--3-33---3--2---2------------|
E--3-3-3-3---------------------------------0------------|

In some versions of the song, they only play each power chord once. However in the real
version he plays it like in this tab. Sorry i couldn't find out the solo