Neil Young - Scattered Text Guitar Tab

Learn the song with the online tablature player
                             Scattered-Neil Young

INTRO/Verses
e|----------------------------------------------------|
B|----------------------------------------------------|
G|----------------------------------------------------|  Repeat x2
D|--5h7-5h7-9p7-----5h7-5h7-9p7-----------------------|
A|--5-----------9-9-------------9-9--5s7-7-5s7-7------|
E|-----------------------------------0---7-----7------|
During the verses, mute the notes a little.

0:49
e|-------------------------------------------------------------------------|
B|-------------------------------------------------------------------------|
G|-------------------------------------------------------------------------|
D|------------------------7-5h7-5h7-7------5h7------5h7-5h7-5h7-5h7--------|
A|--4-5-4-5-4-5-4-2-2-2-2-5-5---5---5-10-9-5---10-9-5----------------------|
E|--5-5-5-5-5-5-5-3-0-3-0-------------8--7-----8--7------------------------|
Then repeat intro/verse.

This is the basic outline of the song.  Treble w/ lots of distortion.

| /  slide up
| \  slide down
| h  hammer-on
| p  pull-off
| ~  vibrato
| +  harmonic
| x  Mute note