Neil Young - Sleeps With Angels Text Guitar Tab

Learn song with the online tabulature player
I saw no one has tabbed Sleeps With Angels.  It's an incredible song so heres the first
for it.  Go easy, this is my first tab, open to comments. Lyrics are at the bottom, and
standard tuning.
Riff 1:
E|-------------------|-------------------|
B|-------------------|-------------------|
G|-------------------|-------------------|
D|--0h2--------------|--2-----2----------|
A|--0h2--------------|--2-----2----------|
E|--0-0-0-0--0-0-0-0-|--0-0-0-0--0-0-0-0-|

E|-------------------|-------------------|
B|-------------------|-------------------|
G|-------------------|-------------------|
D|--0h2--------------|--5-4--------------|
A|--0h2--------------|--5-4--------------|
E|--0-0--------------|-------------------|
      |-  let ring  -|    mute immediatly

Riff 2:
E|-------------------|-------------------|
B|-------------------|-------------------|
G|-------------------|-------------------|
D|-------------------|-------------------|
A|--7---9---------7--|--10p9-7h9------7--|
E|------------10-----|------------10-----|

E|-------------------|-------------------|
B|-------------------|-------------------|
G|-------------------|---------7---------|
D|-------------------|-----------7-9-----| (let ring)
A|--10p9-7h9p7-----7-|--10-9-7-----------|
E|--------------10---|-------------------|