Neils Children - Im Ill Text Guitar Tab

Learn the song with the online tablature player
IM ILL

Intro/Verse:

E|----------------------------------------|
B|-----------33333333---------------------|
G|--33333333-44444444---------------------|
D|--44444444-44444444---------------------|
A|--44444444-22222222---------------------| 2x
E|--22222222------------------------------|

E|----------------------------------------|
B|----------------------------------------|
G|-12-11----------------------------------|
D|-------14-12-11-------------------------|
A|----------------14-12-10-9~-------------|
E|----------------------------------------|

E|----------------------------------------|
B|-1212121212-7-7777----------------------|
G|-1111111111-6-6666----------------------|
D|-1212121212-7-7777----------------------|
A|-1010101010-5-5555----------------------| 3x
E|----------------------------------------|

(not sure i fit isnt a D which he strums)
E|------------2-/-1414141414--------------|
B|-1212121212-2-/-1414141414--------------| in the verse he doesn’t slide he
G|-1111111111-2-/-1414141414--------------| just strums the D chord
D|-1212121212-----------------------------|
A|-1010101010-----------------------------|
E|----------------------------------------|

CHORUS

E|----------222222------------------------|
B|----------333333------------------------|
G|-1-1--3-3-222222------------------------|
D|-2-2--4-4-------------------------------|
A|-2-2--4-4-------------------------------|
E|-0-0--2-2-------------------------------|

BRIDGE
two times normal verse strumm then tremolo (just the chords):
E|--10-12-10-5-7-5------------------------|
B|--12-12-12-7-7-7------------------------|
G|--11-11-11-6-6-6------------------------|
D|--12-12-12-7-7-7------------------------|
A|--10-10-10-5-5-5------------------------|
E|----------------------------------------|

OUTRO
tremolo picking
E|------------------------------------------------------------------------|
B|------------------------------------------------------------------------|
G|---------------------------9/-11/--------------------------9/-11/-9/----|
D|-12/-7/-12/-7/-12/-7/-12/---------12/-7/-12/-7/-12/-7/-12/-----------11-|
A|------------------------------------------------------------------------|
E|------------------------------------------------------------------------|

x