Neils Children - See Through Me Text Guitar Tab

Learn the song with the online tablature player
SEE THROUGH ME
CHANGE RETURN SUCCESS MINI ALBUM

INTRO
|--3-6-4-333-3-6-9---|
|--3-6-4-333-3-6-9---|
|--3-6-4-333-3-6-9---|
|--------------------|
|--------------------|
|--------------------|

VERSE
There's a hole in the ground,
Come and swallow me whole,
so that I can't be found,
so that I can't be told

|--3-6-4-333-3-6-9---|
|--3-6-4-333-3-6-9---|
|--3-6-4-333-3-6-9---|
|--------------------|
|--------------------|
|--------------------|
There's a feeling in me,
one of strict regiment,
that I like to keep up,
because that's my defence

CHORUS
A#/CCC 2x
C#/D#D#D# 2x
A#/CCC 2x
B B

And I know that you can't,
see straight through me,
like I see through you,
and other options they give me,
something else to do

VERSE

I will spit in your face,
and make you swallow your pride,
because unlike you,
I've got nothing to hide

There's a feeling in me,
one of strict regiment,
that I like to keep up,
because that's my defence

CHORUS

And I know that you can't,
see straight through me,
like I see through you,
and other options they give me,
something else to do X2

SOLO
intro then strum around these chords