Nek - Non Sei Mai Lontano Text Guitar Tab

Learn the song with the online tablature player
Song: "...Nunca Estas Lejos"
Artist: Nek

Great song by Nek from his spanish album "Entre Tu y Yo".
(called "...Non Sei Mai Lontano " on his italian ablum "In Due"
INTRO

    2x

---------0---------|---------0---------|---------0--------|
---0-------0-----0-|---0-------0-----0-|---0-------0-----0|
-----2-------2-----|-----2-------2-----|-----2-------2----|
-------2-------2---|-------2-------2---|-------2-------2--|
-0-----------------|-2-----------------|------------------|
-------------------|-------------------|-0----------------|

Play this a couple o times, then:

and thennnnnnnnnnn.......

OUTRO

    2x

---------0---------|---------0---------|---------0--------|
---0-------0-----0-|---0-------0-----0-|---0-------0-----0|
-----2-------2-----|-----2-------2-----|-----2-------2----|
-------2-------2---|-------2-------2---|-------2-------2--|
-------------------|-0-----------------|--2---------------|
-0-----------------|-------------------|------------------|

play this a couple o times also

THE END! WOOHOO!
If you figure out the entire song pleeeeeeeeeeez email me