Nekromantix - Life Is A Grave And I Dig It Text Guitar Tab

Learn the song with the online tablature player
Intro
E----------------------|x4
B----------------------|
G----------------------|
D----------------------|
A-5-8-5-8-5-8/11-10-3--|
E----------------------|

E----------------------------------------|x2
B----------------------------------------|
G----------------------------------------|
D-7-7-7-7-7-7-7-2-5-7-7-7-7-7-7-10-9-5-7-|
A-5-5-5-5-5-5-5-0-3-5-5-5-5-5-5--8-7-3-5-|
E----------------------------------------|

Verse
E------------------------------------------------------------------|x2
B------------------------------------------------------------------|
G------------------------------------------------------------------|
D-7-7-7-7-7-7-7-7-8-8-8-8-8-8-8-8-3-3-3-3-3-3-3-3-5-5-5-5-6-6-6-6--|
A-5-5-5-5-5-5-5-5-6-6-6-6-6-6-6-6-1-1-1-1-1-1-1-1-3-3-3-3-4-4-4-4--|
E------------------------------------------------------------------|

Bridge
play twice)
E---------------------------------|
B---------------------------------|
G---------------------------------|
D-5-5-5-5-5-5-5-5-6-6-6-6-6-6-6-6-|
A-3-3-3-3-3-3-3-3-4-4-4-4-4-4-4-4-|
E---------------------------------|

E--------------------|Don't play 2nd time
B--------------------|
G--------------------|
D--------------------|
A-5-8-5-8-5-8/11-10--|
E--------------------|

Chorus
hold notes)
E------------|x4
B------------|
G------------|
D------------|
A-5-3-1-1-3--|
E------------|

Intro
E----------------------|x4
B----------------------|
G----------------------|
D----------------------|
A-5-8-5-8-5-8/11-10-3--|
E----------------------|

Verse
E------------------------------------------------------------------|x2
B------------------------------------------------------------------|
G------------------------------------------------------------------|
D-7-7-7-7-7-7-7-7-8-8-8-8-8-8-8-8-3-3-3-3-3-3-3-3-5-5-5-5-6-6-6-6--|
A-5-5-5-5-5-5-5-5-6-6-6-6-6-6-6-6-1-1-1-1-1-1-1-1-3-3-3-3-4-4-4-4--|
E------------------------------------------------------------------|

Bridge
play twice)
E---------------------------------|
B---------------------------------|
G---------------------------------|
D-5-5-5-5-5-5-5-5-6-6-6-6-6-6-6-6-|
A-3-3-3-3-3-3-3-3-4-4-4-4-4-4-4-4-|
E---------------------------------|

E--------------------|Don't play 2nd time
B--------------------|
G--------------------|
D--------------------|
A-5-8-5-8-5-8/11-10--|
E--------------------|

Chorus
hold notes)
E------------|x4
B------------|
G------------|
D------------|
A-5-3-1-1-3--|
E------------|

E----------------------------------------|x2
B----------------------------------------|
G----------------------------------------|
D-7-7-7-7-7-7-7-2-5-7-7-7-7-7-7-10-9-5-7-|
A-5-5-5-5-5-5-5-0-3-5-5-5-5-5-5--8-7-3-5-|
E----------------------------------------|

Chorus
hold notes)
E-----------|play until end
B-----------|
G-----------|
D-----------|
A-5-3-1-1-3-|
E-----------|
other guitar plays intro for background