Nekromantix - Nekronaunts Text Guitar Tab

Learn the song with the online tablature player
Eb|-------------------------|-------------------------|
Bb|---4-----4-----4-----4-6-|---4-----4-----4---------|
Gb|-5---5-4---4-3---3-2-----|-5---5-4---4-3---3-2-----|
Db|-------------------------|---------------------1-3-|
Ab|-------------------------|-------------------------|
Eb|-------------------------|-------------------------|
  |                         |                         |
Gb|-------------------------|-5-----4-----3-----2-----|
Db|-------------------------|-------------------------|
Ab|-------------------------|-------------------------|
Eb|-------------------------|-------------------------|

Bb|---4-----4-----4-----4-6-|---4-----4-----4---------|
Gb|-5---5-4---4-3---3-2-----|-5---5-4---4-3---3-2-----|
Db|-------------------------|---------------------1-3-|
Ab|-------------------------|-------------------------|
Eb|-------------------------|-------------------------|
  |                         |                         |
Gb|-------------------------|-------------------------|
Db|-------------------------|-------------------------|
Ab|-3-3-3-2-2-2-1-1-1-0-0-0-|-3-3-3-2-2-2-1-1-1-0-0-0-|
Eb|-------------------------|-------------------------|