Nelly - Paradise Text Guitar Tab

Learn the song with the online tablature player
Artist: Nelly
Album:  Suit
Song:   Paradise

Beginning strum

e--555555555555555-----------------|
b--555555555555555-----------------|
g--555555555555555-----------------|
D----------------------------------|
A----------------------------------|
E----------------------------------|

Main riff (repeat for entire song)

e--5-----5-----5--------7-----7---7-----|
b----5-----5--------------8-----8-------|    x2
g------5-----5--------------7-----------|
D---------------------------------------|
A--0-----0------------------------------|
E---------------------------------------|

e--5-----5-----5--------7-----7---7-|
b----6-----6--------------6-----6---|
g------7-----7--------------7-------|
D--0-----0--------------------------|
A-----------------------7-----------|
E-----------------------------------|

e--5-----5-----5-------------------|
b----5-----5------------6-6-5------|
g------5-----5----------7-7-7------|
D----------------------------------|
A--0-----0-------------------------|
E----------------------------------|