Nelson - Love And Affection Text Guitar Tab

Learn the song with the online tablature player
(you must tone the guitar to Eb)



D A Bm G
D A Bm G

| you'll use this at intro and verses parts |

D A Bm G
e---10---9--------|-9----10----9/10/9-|------7/(9)-|-9---9---| |
B-------------10--|-------------------|----8-------|---------| |
G-----------------|-------------------|--7---------|---9-----| |
D-----------------|-------------------|------------|---------| |
A-----------------|-------------------|------------|---------| |
E-----------------|-------------------|------------|---------| |
|
D A Bm G
e---10--10--9-----|-9----10----9/10/9-|------7/(9)-|-9---9---| |
B---10--------10--|-------------------|----8-------|---------| |
G-----------------|-------------------|--7---------|---9-----| |
D-----------------|-------------------|------------|---------| |
A-----------------|-------------------|------------|---------| |
E-----------------|-------------------|------------|---------| |

 

D A Bm G
Here she comes, just like an angel
D A Bm G
Seems like forever that she's been on my mind
D A
But nothing has changed
Bm G Em A
She thinks I'm a waste of her time

D A Bm G
There she goes, she don't know what she's missing
D A Bm G
Can't she see I'll never give give up the fight
D A Bm G Em A
I'll do all I can till she understands my desire

  

G D
I'm on the outside looking in
G D
Let me into your heart - oh -
G Em
There's nothing on earth that
A
Should keep us apart

   

D A Bm G
I can't live without your love and affection
D A Bm G
I can't face another night on my own
D A Bm G Em
I'd give up my pride to save me from being alone
A
'Cause I can't live without your love

    

D A Bm G
D A Bm G

     

D A Bm G
So I wait, here for an answer
D A Bm G
And wonder if tomorrow will be like yesterday
D A
I'll keep holding on
Bm G Em A
But I can't go on living this way

      

G D
I've been on the outside looking in
G D
Bring these tears to an end - oh -
G Em A
I realize there's no use for me to pretend
Oh yeah

       

D A Bm G
I can't live without your love and affection
D A Bm G
I can't face another night on my own
D A Bm G Em
I'd give up my pride to save me from being alone
A
'Cause I can't live without your love

        

Bm G Bm G
Bm

         

A
For your love... I'd put my arms around you
 G  A
For your love... and find the strength to tell you
 G  A G A
For your love... I can't live without your...

          

D A Bm G
D A Bm G

           

D A Bm G
I can't live without your love and affection
D A Bm G
I can't face another night on my own
D A Bm G Em A
I'd give up my pride to save me from being alone baby

D A Bm G
I can't live without your love and affection
D A Bm G
I just can't go on this way anymore
D A Bm G Em A
As hard as I try there's one thing that I know for sure
G A
I can't live without your love
(D A Bm G) --> and repeating till fade out
I can't live without your love...