Nephew - T-kryds Text Guitar Tab

Learn the song with the online tablature player
                             T-Kryds - Nephew

Hov så kørte man ligeud igen
i et T-kryds bander igen,
scanner igen.
Bang så kørte man ligeud igen
i et T-kryds stammer igen
og jeg flammer igen:

Riff 1
e|---------------------------------------------------------------------|
B|---------------------------------------------------------------------|
G|*-2-2-2-2---------------------------2-2-2-2-------------------------*|
D|*-2-2-2-2--3-3-3-2--2-2-2-2--5-5-5--2-2-2-2--3-3-3-5--5-5-5-5-5-5-5-*|
A|--0-0-0-0--3-3-3-2--2-2-2-2--5-5-5--0-0-0-0--3-3-3-5--5-5-5-5-5-5-5--|
E|-----------1-1-1-0--0-0-0-0--3-3-3-----------1-1-1-3--3-3-3-3-3-3-3--|

Omkvæd:
Åh åh åh åh ååååh
åh åh åh ååhhh
Rød, Gul, Grøn giv op.

Fill op til 2. vers:
e|------------------------------------------------------|
B|------------------------------------------------------|
G|-------------------------------------0-/-4-4-5----4~~-|
D|---2p0---3p0----2-------2p0---3p0---------------------|
A|-0-----0--------------0-----0-------------------------|
E|-------------0--------------------0-------------------|

Riff 2
I 2. omkvæd):
e|-------------------------------------|
B|-------------------------------------|
G|*---------2p0---------------2p0-----*|
D|*---2p0---------------2p0---------2-*| x4
A|--0-----0-----0-----0-----0-----0----|
E|-------------------------------------|

Outro
Fedeste messed-up riff ever!):
e|------------------------------------------------------------------|
B|------------------------------------------------------------------|
G|*-----------------------------------------------------------------|
D|*-2-2-2-2-2-2-2-3-3-3-3-3-3-0-0-0-2-2-2-3-3-2-2-5-5-2-2-3-3-2-2-0-|
A|--0-0-0-0-0-0-0-0-0-0-0-0-0-2-2-2-3-3-3-3-3-3-3-3-3-3-3-3-3-3-3-0-|
E|------------------------------------------------------------------|

e|------------------------------------------------------------------|
B|------------------------------------------------------------------|
G|-5-5-5-5-5-5-5-5-4-4-4-4-4-4-4-4-4-4-4-4-4-4-4-4-2-2-2-2-2-1-1-1-*|
D|-3-3-3-3-3-3-3-3-3-3-3-3-3-3-3-3-2-2-2-2-2-2-2-2-2-2-2-2-2-2-2-2-*|
A|------------------------------------------------------------------|
E|------------------------------------------------------------------|

Husk at dæmp' stringene i starten af outro
riffet. Tæt hen i slutningen spilles der bare til.

Slut akkorden når sangen ender
er bare ændret til en E5:
e|-----|
B|-----|
G|-----|
D|--2--|
A|--2--|
E|--0--|

Symboler:
p: Pull-Off.
/: Slide.
~~: Vrid i tonen.