Nerf Herder - Love Sandwhich Text Guitar Tab

Learn song with the online tabulature player
Nerf Herder - Love Sandwhich
Tabbed By: Daniel Taylor
EMail: danielt88@hotmail.com


The only riff is:

e------------------------------------
B------------------------------------
G--7-----7-5/7------7-5/7---10-------
D--7-----7-5/7------7-5/7---10-------
A--5-----5-3/5------5-3/5---8--------
E------------------------------------

e------------------------------------
B------------------------------------
G--7-----7-5/7------7-5/7------------
D--7-----7-5/7------7-5/7---5--------
A--5-----5-3/5------5-3/5---5--------
E---------------------------3--------

This is song is so damn funny.