Nervecell - Flesh And Memories Text Guitar Tab

Learn song with the online tabulature player
This is "Flesh and Memories" by Nervecell, a great band from United Arab Emirates (UAE).
is a kick-ass song from their "Preaching Venom" album, that you should totally check
All I have now is the intro, and the rest will be coming soon.. TO A THEATRE NEAR YOU!.
Plus, I figured maybe someone else will use this and maybe figure some more out. Enjoy.

Tuning: Drop D (high to low - eBGDAD)
\ - slide
. - palm mute

Intro thingy
e|------------------|
B|------------------|
G|------------------|
D|------------------|
A|---4\3---4-5-66---|
D|---4\3-0-4-5-66---|
         .

Main Riff\Chorus (KICK ASS RIFF)

e|----------------------------------------------------------------------|
B|----------------------------------------------------------------------|
G|----------------------------------------------------------------------|
D|---0------------------------------3------4h5p4-----1------4h5p4-------|
A|---0------3---5---6---5---3---3h5-3------------6-5-1------------6-5---|
D|---0--0-0---0---0---0---0---0-----3--3-3-----------1--1-1-------------|
        . .   .   .   .   .   .        . .              . .

*^The main riff is played like this for the 1st, 2nd, and 4th measures. On the 3rd you 
tremolo picking for the 3-5-6-5-3-5 part. I figured it'd be easier to explain than have 
tab it out.

e|-----------------------------------------------------------------------------|
B|-----------------------------------------------------------------------------|
G|-----------------------------------------------------------------------------|
D|-----------^-^-^-^-^-^-^-^-^-^-^---------------^-^-^-^-^-^-^-^-^-^-^--5p4----|
A|----------3h6p3h6p3h6p3h6p3h6p3h6----5--------3h6p3h6p3h6p3h6p3h6p3h6----5---|
D|---0--0-0-------------------------3h5--0--0-0--------------------------------|
        . .                                 . .

http://www.nervecell.net/
http://www.myspace.com/nervecell