Nesian Mystik - For The People Text Guitar Tab

Learn the song with the online tablature player
NESIAN MYSTIK - FOR THE PEOPLE

Verse

      Cmaj7             D                Em7

e|---------------------------------------------------------------------------|
B|------5------------7--7--------------8---------8p7-------------------------|
G|------4------------7--7--------------7-------7-----------------------------|
D|------5------5-----7--7------7-------9-----9-------------------------------|
A|------3----3-------5--5----5---------7---7---------------------------------|
E|---------------------------------------------------------------------------|

     Cmaj7             D                Em7

e|-------------------------------------------------9p7-----------------------|
B|------5------------7--7--------------8---------8p7-------------------------|
G|------4------------7--7--------------7-------7-----------------------------|
D|------5------5-----7--7------7-------9-----9-------------------------------|
A|------3----3-------5--5----5---------7---7---------------------------------|
E|---------------------------------------------------------------------------|

Bridge

     Cmaj7             D                Em7

e|---------------------------------------------------------------------------|
B|------5------------7--7--------------8---------8p7-------------------------|
G|------4------------7--7--------------7-------7-----------------------------|
D|------5------5-----7--7------7-------9-----9-------------------------------|
A|------3----3-------5--5----5---------7---7---------------------------------|
E|---------------------------------------------------------------------------|

    Cmaj7      G      Em7      D     Cmaj7      D      Cmaj7      G       D

e|---------------------------------------------------------------------------|
B|---5-----------------8------7--------5--------7--------5---------------7---|
G|---4--------4--------7------7--------4--------7--------4--------4------7---|
D|---5--------5--------9------7--------5--------7--------5--------5------7---|
A|---3--------5--------7------5--------3--------5--------3--------5------5---|
E|------------3---------------------------------------------------3----------|