Nesian Mystik - Nesian Style Text Guitar Tab

Learn song with the online tabulature player
-------------------------------------------------------------------------------
                             Nesian Style - Nesian Mystik
-------------------------------------------------------------------------------

Tabbed by:James Stowers
Email:james_stowers@hotmail.com

Tuning:Standard

e|---------------------------------------------------------------------------|
B|--------10------------10--------------7-------------7-------------7--------|
G|------9-------------9--------------6--------------6------------6-----------|
D|---7-------7------6------6------4--------4---------------------------------|
A|------------------------------------------------7------7-----5------5------|
E|---------------------------------------------------------------------------|

e|---------------------------------------------------------------------------|
B|--------5-------------7-------------5--------------------------------------|
G|------6-------------6-------------6----------------------------------------|
D|---------------------------------------------------------------------------|
A|---4-------4-----5-------5-----7-------7-----------------------------------|
E|---------------------------------------------------------------------------|

Repeat throughout the whole song