Nesian Mystik - Unity Text Guitar Tab

Learn the song with the online tablature player
                             UNITY - Nesian Mystik

     Dm       Dm       Bb       C

e|---------------------------------------------------------------------------|
B|----6-6----6-6-------------------------------------------------------------|
G|----7-7----7-7------7-7------9--9------------------------------------------|
D|----7-7----7-7------8-8------10-10-----------------------------------------|
A|----5-5----5-5------8-8------10-10-----------------------------------------|
E|--------------------6-6------8--8------------------------------------------|

play upstroke (reggae fo' real)
repeat throughout whole song

Melody (played by horns but yea play it on the gat too)

e|------------------------------------------5------------5-5-----------------|
B|------5-6-8-6---5-6-5---------------5-6-8----5-6-5---5-----8---5h6p5---5---|
G|----7-----------------7-5-----5---7----------------7-----------------7---7-|
D|--------------------------8-8----------------------------------------------|
A|---------------------------------------------------------------------------|
E|---------------------------------------------------------------------------|