Neutral Milk Hotel - Now Im Going Down Text Guitar Tab

Learn the song with the online tablature player
Verse
D#
-------------------------------------------------------|
-------------------------------------------------------|
-------------------------------------------------------|
-1-----------------------------------------------------|
-1------1H4--4---4---6---6---6----6---4--5--1----------|
-0-------0--------------0------------------0-----------|

I crush the world I was in
I'll destroy the world I will find
I'll work the tools with my hands
I'll stick the needles in my eyes

Chorus
D#                              C#                         G#
-----------------------------------------------------|
-----------------------------------------------------|
-----------------------------------------------------|
--13-----------------------11-------------------6----|
--13---(strum)-----------11-------------------6------|
--12---------------------- 10-------------------5----|

(Then, play riff once, and repeat chords for second half of chorus)
And in my celebrations
You were by my side
And now I'm going down
And through the complications
Something inside me died
And now I'm going down

V2
Bring down the sky with my tears
Dig up the earth with my hands
Take a look inside of my head
And maybe then you could understand

Chorus
And in my celebrations
You were by my side
And now I'm going down
And through the complications
Something inside me died
And now I'm going down

Chorus 2
very similar to verse, listen to it, you can figure it out)

So long I get my friend back
I guess it's time I should let you know
Well, these things they come around
I guess it's just too hard to let them go
You wait around and while you never
Seem to find that faith in me
You close your eyes and smile
"Forever I will be"
Well, I know the way and I will go
I know the way and I will find
It's all around me and I told you so
All around in here, goodbye

Chorus
And in my celebrations
You were by my side
And now I'm going down
And through the complications
Something inside me died
And now I'm going down

Chorus
And all the big decisions we never could decide
And now I'm going down
And in my celebrations
You were by my side
And now I'm going down