Neutral Milk Hotel - Untitled Text Guitar Tab

Learn the song with the online tablature player
The very first sound in the beginning stars with

E|------------------------------------------------------|
B|------------------------------------------------------|
G|------------------------------------------------------|
D|---2----let-the-sound-ring-for-10-seconds-------------|
A|------------------------------------------------------|
E|------------------------------------------------------|
OR

E|------------------------------------------------------|
B|------------------------------------------------------|
G|------------------------------------------------------|
D|-------let-the-sound-ring-for-10-seconds--------------|
A|------------------------------------------------------|
E|---0--------------------------------------------------|

E|------------------------------------------------------|
B|------------------------------------------------------|
G|------------------------------------------------------|
D|------1----2------------------------------------------|
A|---2------------3----2--------------------------------|
E|------------------------------------------------------|

E|--------------7---9---12---11---9---7-------------------|
B|---7---9---9-------------------------------9---7---9----|
G|-9------------------------------------------------------|
D|--------------------------------------------------------|  Continue down
A|--------------------------------------------------------|
E|--------------------------------------------------------|

E|------7---9--7-----------------------------------------|
B|-----------------9---7---------------------------------|
G|-------------------------9-----------------------------|
D|-------------------------------------------------------|
A|-------------------------------------------------------|
E|-------------------------------------------------------|