Neva Dinova - Clouds Text Guitar Tab

Learn song with the online tabulature player
------------------------------------------------
Clouds-Neva Dinova
-------------------------------------------------
Tabbed by: Caranokol
Email:Caranokol@yahoo.com

Tuning:standard


Em          D
Come on storm,
Am                C
let's form a cloud.
G             D        Am             C
Let's turn this world upside-down.

e|----------------------------------------------------------|
B|------8--7-5----------------------------------------------|
G|----------------7--4--------------------------------------|
D|----------------------------------------------------------|
A|----------------------------------------------------------|
E|----------------------------------------------------------|

Em                D       Am              C
When I think of dyin', I laugh out loud.
  e|-----15p12---------------------------------------|
  B|------------------13p12-------------12-----------|
  G|-----------------------------12h14--(0)----------|
  D|-------------------------------------------------|
  A|-------------------------------------------------|
  E|-------------------------------------------------|

G       D
Come on storm,

Am         C
let's form a cloud.

e|------------------------------------------------------------|
B|------8--7-5------------------------------------------------|
G|----------------7--4----------------------------------------|
D|------------------------------------------------------------|
A|------------------------------------------------------------|
E|------------------------------------------------------------|

Em             D
I seen the good ones;

Am                C
I seen them drown.
 e|-----15p12--------------------------------------|
 B|------------------13p12-------------12----------|
 G|-----------------------------12h14--(0)---------|
 D|------------------------------------------------|
 A|------------------------------------------------|
 E|------------------------------------------------|

G           D        Am              C
Come on storm, let's form a cloud.

Come on.
Come on.
Come on.
Come on.
Come on...

Can you see the mountains?
Can you see the birds?
Can you feel the fountain?
Can you feel the world?