Neve - Drift Text Guitar Tab

Learn song with the online tabulature player
-----------------------------------------------------------------------------
                           Drift - Neve
-----------------------------------------------------------------------------
Tabbed by:jughead
Email:

Tuning:

e|--------------------------------------------------------------------------|
B|----------0---------------0-------------0---------------0-----------------|
G|------4-----4---4-----4-----4---4-----4---4---4-----4-----4---4-----------|
D|----2---2-----2-----2---2-----2-----2-------2-----2---2-----2-------------|
A|--4---------------3-------------------------------------------------------|
E|----------------------------------4-------------0-------------------------|

 thats the CORE of the song