Never Heard Of It - Alone Text Guitar Tab

Learn the song with the online tablature player
Never Heard Of It is a band that you can check out at mp3.com and if you  go to
the Warped Tour every other year you would know about them this song is on their
first album "Limited Edition."

Intro/Verse:
---------------------------------|
---------------------------------|
---------------------------------|
-----3h4p3---3------3h4p3--------|
-4-4------------1-1--------4--6--|
-----------4--------------2--4---|

Pre-Chorus
---------------------*-------------------------------|
---------------------*-------------------------------|
---------------------*-6-6666666---------------------|
-4-4444444-6-6666666-*-6-6666666-44444444-(6666666)6-|
-4-4444444-6-6666666-*-4-4444444-44444444-(6666666)6-|
-2-2222222-4-4444444-*-----------22222222-(4444444)4-|

Chorus
Two Guitars
Guitar:1                   Guitar:2 all the same except the start
---------------------------|---------------------------|
---------------------------|---------------------------|
---------------------------|-6-666-66-6-6--------------|
-------44-----4-444-66-6-6-|-6-666-66-6-6-4-444-66-6-6-|
-4-444----6-4-4-444-66-6-6-|-4-444-44-4-4-4-444-66-6-6-|
--------------2-222-44-4-4-|--------------2-222-44-4-4-|

Breakdown Riff:This isn't right but it's what I play
-------------------------------------------------------|
-------------------------------------------------------|
---------------------------(66-6)66--------------------|
-(66-6)66-(66-6)66-(44-4)4-(66-6)66-(44-4)44-----------|
-(66-6)66-(66-6)66-(44-4)4-(44-4)44-(44-4)44-----------|
-(44-4)44-(44-4)44-(22-2)2----------(22-2)22-----------|

That's pretty much it...hope you like it!