Nevermore - 421 Text Guitar Tab

Learn the song with the online tablature player
1)
2)Harmony to pattern 1
3)

-8-8-----------------------9-8----------12-8---------9-8-----------------------
-6-6--6-6-6--6-6-6--6-6-6--7-6--6-6-6---10-6--6-6-6--7-6--6-6-6--6-6-6--6-6-6--

                           second ending to section 3 (then back to section 1)
--------------------------|-------------------------------------------
--------------------------|-------------------------------------------
--------------------------|-------------------------------------------
--------------------------|--9-8--6-----------------------------------
-7-6---6------------------|--7-6--4--5--------------------------------
-----9---9-7-9-7-6-7-6-4--|----------3--------------------------------

hold  4) solo rythms
----|-----------------------------------------------------------------
-5--|-5--------------------5------------------------------------------
-6--|-6--------------------6------------------------------------------
-6--|-6--6-6--6--6-6--7-7--6--6-6--6--66--6---------------------------
-4--|-4--4-4--4--4-4--5-5--4--4-4--4--44--4--5--5---------------------
----|----------------------------------------3--3---------------------
                                 repeat
--------------------------------------||------------------------------
-5-------5------------5---------------||------------------------------
-6-------6------------6------------6--||------------------------------
-6--6-6--6--6-6--7-7--6--6-6--6--5----||------------------------------
-4--4-4--4--4-4--5-5--4--4-4--4-------||------------------------------
--------------------------------------||------------------------------

-8-----------------8-----8-------------------------------------------
-9-----------------9-----9-------------------------------------------
-9-----9---9-10-10-9-----9---9-----9------9---9-10-10----------------
-7-----7---7-8--8--7-----7---7-8-8-7------7---7-8--8-----------------
---0-0---0-----------0-0---0---6-6---0--0---0------------------------

                 5) clean part (1st measure 4 times)
-----------------|--------0---|----------0----|---------------------------
-----------------|----9----9--|-----9------9--|---------------------------
--------------9--|--8---8-----|-------88------|---------------------------
-9-----9----8----|------------|--10-----------|-9-------------------------
-7-----7---------|------------|---------------|---------------------------
---0-0---0-------|------------|---------------|---------------------------

4 times
-----0----|--------0----------0-----------0----------0----|------------
-9-----9--|----9-----9----9-----9----9------9----9-----9--|------------
---8------|------8----------8-----------8----------8------|------------
----------|-10----------9----------8-----------8----------|------------
----------|-----------------------------------------------|------------
----------|-----------------------------------------------|------------

6) repeat twice
7) up beat segment (play twice)

-2-4-4--2-4-2-4-4--2-4-5-4-4--2-4-2-4-44-2---------------------------

8) play twice

-5-7-7-5-7-5-7-7--5-7-8-7-7-5-7-5-7-7-55-1---------------------------

9) play twice

-4--6-6--4-6-4-6-6--4-6--4-6--7--6-6--44-6-4--6-6--4--0--------------
-2--4-4--2-4-2-4-4--2-4--2-4--5--4-4--22-4-2--4-4--2-----------------

10)
------------------------------------------------|--------------------
------------------------------------------------|--------------------
----------0-------------------------------------|--------------------
-4--4-------0-----------------------------------|--------------------
-2-----2------5-5---7-5-4-4---2-4-5---44---2----|--------------------
--------------3---3-----2---2-------2----2---2--|--------------------

11)
------0--------0--------0-------------||------------------------------
--------0--------0--------0-----------||------------------------------
--------------------------------------||------------------------------
--------------------------------------||------------------------------
-2-2------4-4------5-5------7--10-9---||------------------------------
-0-0------2-2------3-3------5--8--7---||------------------------------

12) play twice

-2--------------------3---------------------6-------------------5-6-5---5----
----0-0-0-0--0-0-0-0-----0-0-0-0--0-0-00-0-----0-0-0-0--0-0-0-0-------4---4--

-2-------------------1---------------------4--------------------1-4-1---1----
---0-0-0-0--0-0-0-0-----0-0-0-0--0-0-0--0-----0-0-0-0--0-0-0-0--------1---1--

13) Evd-Octave Heavy                         *
-----------------------------------------------|----------------------
-----------------------------------------------|----------------------
-9---------------------10----------------------|----------------------
-*---------------------*-----------------------|----------------------
-7---------------------8-----------------------|----------------------
---0-0-0--0-0-0--0-0-0---0-0-0--0-0-0---0-0-0--|----------------------

repeat 13 to *                    ...then
---------------------------------|------------------------------------
---------------------------------|------------------------------------
-10---------------------7--------|------------------------------------
-*----------------------*--------|-3----------------------------------
-5----------------------5--------|-1--44------------------------------
---0-0-0--0-0-0--0-0-0----0-0-0--|----22------------------------------

Back to section 5 to end song.