Neverne Bebe - Boje Duge Text Guitar Tab

Learn song with the online tabulature player
Neverne bebe i  Aki Rahimovski – Boje duge(Intro)

Tabed by Aleksandar


e|--------------3----0------0------0-|----------3--------------|
B|--------------3----0------0------0-|----------3--------------|
G|------0-2-2/4----2----2-0----0-2---|--0-2-2/4----2-0—2/4-----|
D|--0^2------------------------------|-------------------------|
A|-----------------------------------|-------------------------|
E|-----------------------------------|-------------------------|
                                                                     
h.

e|-------------3-----0------0------0--|------------0-----------------12---|
B|-------------3-----0------0------0--|----------3-------------------12---|
G|-----0-2-2/4-----2----2-0----0-2----|--0-2-2/4--------2^0----------12---|
D|-2^0--------------------------------|----------------------2------------|
A|------------------------------------|-----------------------------------|
E|------------------------------------|-----------------------------------|


Or:

e|-----------------------------------|---------------------------|
B|-------------8----5------5------5--|----------8----------------|
G|-------------7----4------4------4--|----------7----------------|
D|-----5-7-7/9----7----7-5----5-7----|--5-7-7/9-----5^7-5—7/9----|
A|-5^7-------------------------------|---------------------------|
E|-----------------------------------|---------------------------|

                                                                                   h.
e|-------------------------------------|-----------0-------------------12--|
B|--------------8-----5------5-------5-|-------------------------------12--|
G|--------------7-----4------4-------4-|---------7---------------------12--|
D|-----7-5-7/9------7----7-5----5-7----|-5-7-7/9--------5^7--5-------------|
A|-7^5---------------------------------|-------------------------7---------|
E|-------------------------------------|-----------------------------------|


The official web site of this serbian band is: http://www.neverne-bebe.com/