Neverstore - Rejected All Along Text Guitar Tab

Learn the song with the online tablature player
E-----------------|-----------------|---|-----------------|
B-----------------|-----------------|---|-----------------|
G-7-7-7-7--7------|-11-11-11-11-----|---|-----------------|
D-7-7-7-7--7------|-11-11-11-11-----|-7-|-5-5-5-5--5------|
A-5-5-5-5--5------|-9--9--9--9------|-7-|-5-5-5-5--5------|
E-----------------|-----------------|-5-|-3-3-3-3--3------|

------------------|
------------------|
12-12-12-12--12---|
12-12-12-12--12---|
10-10-10-10--10---|
------------------|
and play over and over...