New Amsterdams - Are You True Text Guitar Tab

Learn the song with the online tablature player
Are You True? – New Amsterdams

Riff 1
e-----------------|----|
B----1---0--------|----|
G----0---0---0--4-|----|
D----2-0-0---2--5-|----|
A--3-3-------2--5-|-0-2|
E----------0-0--3-|----| x2

Riff 1b
e-----------------|-------|
B----1---0--------|-8--8--|
G----0---0---0--6-|-9--8--|
D----2-0-0---2--7-|-8--8--|
A--3-3-------2--7-|-10-10-|
E----------0-0--5-|-8--8--|

Chorus
e--3--3-------|
B--3--6--5--4-|
G--4--4--4--3-|
D--5--3--2--1-|
A--5--5--3--3-|
E--3--3-------|

Chorus 1b
e-3-(5)------------|
B-3--7--5----------|
G-4--7--5----------|
D-5--7--5----------|
A-5--5--3-3-2-0----|
E-3--------------3-|