New Amsterdams - Just So Over You Text Guitar Tab

Learn the song with the online tablature player
              Just So Over You - The New Amsterdams

e|-----------------------------------------------------------|
B|----7---7---7---7---7---7---7---7---3---3---5---5---5---5--|
G|------7-------7-------7-------7-------4-------6-------6----|
D|-----------------------------------------------------------|
A|----------7---------------5--------------------------------|
E|--7---------------5---------------3-------5-------6--------|

I'm just so over you,
I'm just so over you
I hope that you get to see
what you've done to me

What good does patience do?
Rewards aren't coming true
It doesn't seem worth the wait
for I'll gotten fate

I could not speak for you
but I think you feel it too
this instinct to hesitate
but then you make mistakes

And I'll see things clearly when
madness starts happening
is this the end in sight?
at least I changed my mind.

It's nothing personal
It's nothing personal
It's just my time and place
to make my mistake.

  Solos / fills
e|-----------------------------------------------------------------------|
B|------------/7~----5~/7-/8~-/10~---5-5h7--5-3--------------------------|
G|--4~--6~-7~-----------------------------------4~-----------------------|
D|-----------------------------------------------------------------------|
A|-----------------------------------------------------------------------|
E|-----------------------------------------------------------------------|

e|-----------------------------------------------------------------------|
B|-----------------------------------------------------------------------|
G|-----------------------------------------------------------------------|
D|-----------------------------------------------------------------------|
A|--2~-2-4-5/7--7-7--9-10\9---10-9--9\7~---7-7h9--7-5-2~-----------------|
E|-----------------------------------------------------------------------|

e|-----------------------------------------------------------------------|
B|------------/7----5~/7-/8~-/10------11--12-14-12~----------------------|
G|--4~--6~-7~------------------------------------------------------------|
D|-----------------------------------------------------------------------|
A|-----------------------------------------------------------------------|
E|-----------------------------------------------------------------------|

e|-----------------------------------------------------------------------|
B|--12~-12--7-7h8~---10/12-10-5-5h7~---8-7-7\5~--5-5h7-5-3---------------|
G|---------------------------------------------------------4~------------|
D|-----------------------------------------------------------------------|
A|-----------------------------------------------------------------------|
E|-----------------------------------------------------------------------|

e|-----------------------------------------------------------------------|
B|----------------------12-----------------------------------------------|
G|--7-9-6-7-4-6--/6-7-9-11-----------------------------------------------|
D|----------------------12-----------------------------------------------|
A|-----------------------------------------------------------------------|
E|--(listen to the song for that bit)------------------------------------|

e|-----------------------------------------------------------------------|
B|----------------------------------8~-10~-11-12-14-12~------------------|
G|-----------------------------------------------------------------------|
D|-----------------------------------------------------------------------|
A|-----------------------------------------------------------------------|
E|-----------------------------------------------------------------------|