New Bomb Turks - Mr Suit Text Guitar Tab

Learn the song with the online tablature player
RIFF 1
E|---------------------------|---------------------------|
B|---------------------------|---------------------------|
G|---------------------------|---------------------------|
D|---7--7--7--5--5--5--5--2--|--2--5--5--7--7--x--x--x---|
A|---7--7--7--5--5--5--5--2--|--2--5--5--7--7--x--x--x---|
E|---5--5--5--3--3--3--3--0--|--0--3--3--5--5--x--x--x---|

RIFF 2
E|-----------------------|----------------------|
B|-----------------------|----------------------|
G|-----------------------|----------------------|
D|---5----5----5----5----|--5----5----5----5----|
A|---5----5----5----5----|--5----5----5----5----|
E|---3----3----3----3----|--3----3----3----3----|

E|--------------------------|---------------------------|
B|--------------------------|---------------------------|
G|--------------------------|---------------------------|
D|--7--7--7--7--7--7--7--7--|--7--7--7--7--7--7--7--7---|
A|--7--7--7--7--7--7--7--7--|--7--7--7--7--7--7--7--7---|
E|--5--5--5--5--5--5--5--5--|--5--5--5--5--5--5--5--5---|

INTRO
Riff 1 (6x)

VERSE
Riff 1 (4x)

REFRAIN
Riff 2 (2x)

INTRO
Riff 1 (4x)

VERSE
Riff 1 (4x)

REFRAIN
Riff 2 (2x)

INSTRUMENTAL
Riff 1 (4x)

VERSE
Riff 1 (4x)

REFRAIN
Riff 2 (2x)

INSTRUMENTAL
Riff 1 (5x) (last time ritardando)