New Found Glory - Ex-miss Text Guitar Tab

Learn the song with the online tablature player
Intro Lead
repeat as needed):
e|------------|
B|--8---------|
G|----7-9-5---|
D|------------|
A|------------|
E|------------|

Intro Rhythm
e|---------------------------|------------------------------|
B|---------------------------|------------------------------|
G|----------55555555-----77--|-12-(repeat about 14----------| more times)
D|-55555555-55555555-22--77--|-12---------------------------|
A|-55555555-33333333-22--55--|-10---------------------------|
E|-33333333----------00------|------------------------------|

Verse
e|--------------------------------------------------------|
B|--------------------------------------------------------|
G|----5*----5*----5*----5*--------------------------------|
D|-5*-5*-5*-5*-5*-5*-5*-5*--------------------------------|
A|-5*-3*-5*-3*-5*-3*-5*-3*--------------------------------|
E|-3*----3*----3*----3*-----------------------------------|
(* means let ring)

Pre-Chorus
| first time only     |      |2nd time|
e|----------------------------------|---------------------|      ----------|
B|----------------------------------|---------------------|      ----------|
G|-99999999-11-11-11-11-11-11-11-11-|-5555555555555555----|      -5-4-5-7--|
D|-99999999-11-11-11-11-11-11-11-11-|-5555555555555555----|(x2)  -5-4-5-7--|
A|-77777777-9--9--9--9--9--9--9--9--|-3333333333333333----| then -3-2-3-5--|
E|----------------------------------|---------------------|      ----------|

Chorus
| note: don't use
e|------------------------------------------|---------------|this
B|------------------------------------------|---------------|part
G|----------55555555-99999999-77777777------|-55555555-5577-|with
D|-55555555-55555555-99999999-77777777------|-55555555-5577-|solo
A|-55555555-33333333-77777777-55555555-(x2)-|-33333333-3355-|
E|-33333333-----------------------------then|---------------|

Solo Lead
e|--------------------------------------------------------      ----------|
B|--------------------------------------------------------      ----------|
G|-------4---------------4--------------5-4-----7-7-5-2-4-      -5-4-5-7--|
D|---------7-5-------------7-5--------------5-------------(x2)  ----------|
A|-5-5-5-------5---5-5-5-------7--7-7-7-------7----------- then ----------|
E|--------------------------------------------------------      ----------|

Ending
e|------------------|
B|------------------|
G|-55555555-5-4-5-7-|
D|-55555555-5-4-5-7-|
A|-33333333-3-2-3-5-|
E|------------------|

Song Order:
Intro Rhythm and Lead (x1)

Verse
x1)

Pre-Chorus
x1)

Chorus
x1)
Intro Rhythm and Lead (x1)

Verse
x1)

Pre-Chorus
x1)

Chorus
x1)

Chorus WITH Solo Lead
x1)

Chorus
x2, second time with Intro Lead)
Ending