New Found Glory - Eyesore Acoustic Text Guitar Tab

Learn the song with the online tablature player
--|Intro|--
(0:00)-(0:11)
e|---------------------------------------------------|
B|---------------------------------------------------|
G|---------------------------------------------------|
D|--XX-7777777-XXXX-4444444-XXXX-------------222222--|
A|--XX-7777777-XXXX-4444444-XXXX-4444444h7p4-222222--|
E|--XX-5555555-XXXX-2222222-XXXX-5555555---5-000000--|
                         (1x)

--|Verse|--
(0:11)-(0:33)
e|---------------------------------------------------|
B|---------------------------------------------------|
G|---------------------------------------------------|
D|--XX-7777777-XXXX-4444444-XXXX-------------222222--|
A|--XX-7777777-XXXX-4444444-XXXX-4444444h7p4-222222--|
E|--XX-5555555-XXXX-2222222-XXXX-5555555---5-000000--|
                         (2x)

--|Pre|--
(0:33)-(0:55)
e|----------------------------------------------------------------------|
B|----------------------------------------------------------------------|
G|-------------------77777-77-777-XX------------------------------------|
D|--77777-77-777-XX--77777-77-777-XX--77777-77-777-XX--22222-22-222-XX--|
A|--77777-77-777-XX--55555-55-555-XX--77777-77-777-XX--22222-22-222-XX--|
E|--55555-55-555-XX-------------------55555-55-555-XX--00000-00-000-XX--|
                                   (2x)

--|Chorus|--
(0:55)-(1:17)
e|-----------------------------------|
B|-----------------------------------|
G|---------77x-x-----------77777777--|
D|--77x-x--77x-x--44444444-77777777--|
A|--77x-x--55x-x--44444444-55555555--|
E|--55x-x---------22222222-----------|
                 (4x)

--|Verse 2|--
(1:18)-(1:38)
e|---------------------------------------------------|
B|---------------------------------------------------|
G|---------------------------------------------------|
D|--XX-7777777-XXXX-4444444-XXXX-------------222222--|
A|--XX-7777777-XXXX-4444444-XXXX-4444444h7p4-222222--|
E|--XX-5555555-XXXX-2222222-XXXX-5555555---5-000000--|
                         (2x)

--|Pre|--
(1:39)-(2:00)
e|----------------------------------------------------------------------|
B|----------------------------------------------------------------------|
G|-------------------77777-77-777-XX------------------------------------|
D|--77777-77-777-XX--77777-77-777-XX--77777-77-777-XX--22222-22-222-XX--|
A|--77777-77-777-XX--55555-55-555-XX--77777-77-777-XX--22222-22-222-XX--|
E|--55555-55-555-XX-------------------55555-55-555-XX--00000-00-000-XX--|
                                   (2x)

--|Chorus|--
(2:01)-(2:22)
e|-----------------------------------|
B|-----------------------------------|
G|---------77x-x-----------77777777--|
D|--77x-x--77x-x--44444444-77777777--|
A|--77x-x--55x-x--44444444-55555555--|
E|--55x-x---------22222222-----------|
                 (4x)

--|Interlude|--
(2:23)-(2:43)
e|---------------------------------------------------|
B|---------------------------------------------------|
G|---------------------------------------------------|
D|--XX-7777777-XXXX-4444444-XXXX-------------222222--|
A|--XX-7777777-XXXX-4444444-XXXX-4444444h7p4-222222--|
E|--XX-5555555-XXXX-2222222-XXXX-5555555---5-000000--|
                         (2x)

--|Pre|--
(2:44)-(3:05)
e|-------------------------------------------------------------------|
B|-------------------------------------------------------------------|
G|------------------77777-77-777-XX----------------------------------|
D|--77777-77-777-XX-77777-77-777-XX-77777-77-777-XX-22222-22-222-XX--|
A|--77777-77-777-XX-55555-55-555-XX-77777-77-777-XX-22222-22-222-XX--|
E|--55555-55-555-XX-----------------55555-55-555-XX-00000-00-000-XX--|
                                  (2x)

--|Chorus|--
(3:05)-(3:29)
e|-----------------------------------|-----|
B|-----------------------------------|-----|
G|---------77x-x-----------77777777--|-----|
D|--77x-x--77x-x--44444444-77777777--|--7--|
A|--77x-x--55x-x--44444444-55555555--|--7--|
E|--55x-x---------22222222-----------|--5--|
                 (4x)                 (end)

woot! thanks to tiff for keeping me up long enough to tabb this out all night.