New Found Glory - So Happy Together Text Guitar Tab

Learn song with the online tabulature player
Intro (there's the bass thing, too):
E |-5-4-2--5-4-2-|
H |--------------|
G |--------------|
D |--------------|
A |--------------|
E |--------------|


Imagine me and you, I do, I think about you
E |-------------------------------------------------|
H |-------------------------------------------------|
G |-------------------------------------------------|
D |-10-10-10-10-10-10-10-10-10-10-10-10-10-10-10-10-|
A |--9--9--9--9--9--9--9--9--9--9--9--9--9--9--9--9-|
E |-------------------------------------------------|

day and night, it's only right to think about the
E |---------------------------------|
H |---------------------------------|
G |---------------------------------|
D |-9-9-9-9-9-9-9-9-9-9-9-9-9-9-9-9-|
A |-7-7-7-7-7-7-7-7-7-7-7-7-7-7-7-7-|
E |---------------------------------|

girl you love and hold her tight, so happy to-
E |---------------------------------|
H |---------------------------------|
G |---------------------------------|
D |-7-7-7-7-7-7-7-7-7-7-7-7-7-7-7-7-|
A |-5-5-5-5-5-5-5-5-5-5-5-5-5-5-5-5-|
E |---------------------------------|

gether.
E |---------------------------------|
H |---------------------------------|
G |---------------------------------|
D |-6-6-6-6-6-6-6-6-6-6-6-6-6-6-6-6-|
A |-4-4-4-4-4-4-4-4-4-4-4-4-4-4-4-4-|
E |---------------------------------|


I can't see me
E |-------------------------------------------------|
H |-------------------------------------------------|
G |-------------------------------------------------|
D |-10-10-10-10-10-10-10-10-10-10-10-10-10-10-10-10-|
A |--9--9--9--9--9--9--9--9--9--9--9--9--9--9--9--9-|
E |-------------------------------------------------|

loving nobody but
E |---------------------------------|
H |---------------------------------|
G |---------------------------------|
D |-9-9-9-9-9-9-9-9-9-9-9-9-9-9-9-9-|
A |-7-7-7-7-7-7-7-7-7-7-7-7-7-7-7-7-|
E |---------------------------------|

you, for all my
E |-------------------------------------------------|
H |-------------------------------------------------|
G |-------------------------------------------------|
D |-10-10-10-10-10-10-10-10-10-10-10-10-10-10-10-10-|
A |--9--9--9--9--9--9--9--9--9--9--9--9--9--9--9--9-|
E |-------------------------------------------------|

life.
E |---------------------------------|
H |---------------------------------|
G |-9-9-9-9-9-9-9-9-9-9-9-9-9-9-9-9-|
D |-7-7-7-7-7-7-7-7-7-7-7-7-7-7-7-7-|
A |---------------------------------|
E |---------------------------------|

That's it.