New Found Glory - Truck Stop Blues Text Guitar Tab

Learn the song with the online tablature player
e-------------------------------------------------------------|
B-------------------------------------------------------------|
G----6 -8-9---------------------------------------------------|
D----6 -8-9---------------------------------------------------|
A----4 -6-7-----------------------11 slide down---------------|
E-------------------------------------------------------------|

e---------------------------------------------------------|
B---------------------------------------------------------|
G----------------------4----3-----------------------------|
D------4-------4-----4--4--4-4----------------------------|
A-----2--2---2--2--2------4-------------------------------|
E----4------0---------------------------------------------|

e----------------------------------------------------------|
B----------------------------------------------------------|
G---4444--44----4444--44-----------------------------------|
D---4444--44----4444--44--4444--44----2222--22-------------|
A---2222--22----2222--22--4444--44----2222--22-------------|
E-------------------------2222--22----0000--00-------------|

(RIFF)
e
B----5p4------------|
G-------6-4---------|