New Jerusalem - Final Stand Text Guitar Tab

Learn song with the online tabulature player
x4  Standard Tuning
-----------------------------------------------------|
-----------------------------------------------------|
-----------------------------------------------------|
5555555----------------------------------------------|
55555552---------------------------------------------|
33333330---------------------------------------------|
x4
-----------------------------------------------------|
-----------------------------------------------------|
-----------------------------------------------------|
2-2-0------------------------------------------------|
------3-2-2-2-3-2-0-0-0-2----------------------------|
--------------------------3-0------------------------|

-----------------------------------------------------|
-----------------------------------------------------|
-----------------------------------------------------|
-2---2------2-2-5555---------------------------------|
----------------5555---------------------------------|
0-0-0-0-0-0--0--3333---------------------------------|

I can't figure out the solo yet this is all i've got hope you like it