New Medicine - Race You To The Bottom Text Guitar Tab

Learn song with the online tabulature player
This is my first tab so go easy on me. I'll put in the few fills that I know, but I 
don't know many of them.

Intro/verse

both guitars
e|-----xxxx-----xxxx----x-x----x-x-|
B|-----xxxx-----xxxx----x-x----x-x-|
G|-----xxxx-----xxxx----x-x----x-x-|
D|-2-4-xxxx-2-4-xxxx-2-4x4x-2-5x5x-|   x4
A|-2-4-xxxx-2-4-xxxx-2-4x4x-2-5x5x-|
D|-2-4-xxxx-2-4-xxxx-2-4x4x-2-5x5x-|

both guitars
e|-----------------------------------------|
B|-----------------------------------------|
G|-----------------------------------------|
D|-4~~~~5~4~~~~5~4~~~~5~4~~~~--------------|
A|-4~~~~5~4~~~~5~4~~~~5~4~~~~slide up neck-|
D|-4~~~~5~4~~~~5~4~~~~5~4~~~~--------------|

hells bells...

guitar 1
e|------------------|
B|------------------|
G|------------------|
D|-4--------9-9-7-4-|
A|-4--------9-9-7-4-|
D|-4--------9-9-7-4-|

guitar 2
e|--------------------|
B|--------------------|
G|--------------------|
D|--------------------|
A|--------------------|
D|-4~~~7-9-7-9-10-9-7-|

guitar 1
e|---------|
B|---------|
G|---------|
D|-9-9-7-4-|
A|-9-9-7-4-|
D|-9-9-7-4-|

guitar 2
e|------------------|
B|------------------|
G|----------------9^|
D|------------------|
A|------------------|
D|------------------|

guitar 1
e|---------|
B|---------|
G|---------|
D|-9-9-7-4-|
A|-9-9-7-4-|
D|-9-9-7-4-|

guitar 2 has another fill here i'm not sure about

both guitars
e|-------|
B|-------|
G|-------|
D|-99-77-|
A|-99-77-|
D|-99-77-|

whoa...

e|-------------------|
B|-------------------|
G|-------------------| x3, mute after last power chord on second time
D|-4-4-4447-7779-999-|
A|-4-4-4447-7779-999-|
D|-4-4-4447-7779-999-|

e|------------------|
B|------------------|
G|------------------|
D|-9999999977777777-|
A|-9999999977777777-|
D|-9999999977777777-|

e|-----xxxx-----xxxx----x-x----x-x-|
B|-----xxxx-----xxxx----x-x----x-x-|
G|-----xxxx-----xxxx----x-x----x-x-|
D|-2-4-xxxx-2-4-xxxx-2-4x4x-2-5x5x-|   x2
A|-2-4-xxxx-2-4-xxxx-2-4x4x-2-5x5x-|
D|-2-4-xxxx-2-4-xxxx-2-4x4x-2-5x5x-|


e|----------------------------------|
B|----------------------------------|
G|----------------------------------|
D|-2-4~~5~4~~~~5~4~~~~--------------|
A|-2-4~~5~4~~~~5~4~~~~slide up neck-|
D|-2-4~~5~4~~~~5~4~~~~--------------|

guitar 1
e|------------------|
B|------------------|
G|------------------|
D|-4--------9-9-7-4-|
A|-4--------9-9-7-4-|
D|-4--------9-9-7-4-|

guitar 1
e|---------|
B|---------|
G|---------|
D|-9-9-7-4-|
A|-9-9-7-4-|
D|-9-9-7-4-|

guitar 2
e|---------------------|
B|---------------------|
G|---------------------|
D|---------------------|
A|---------------------|
D|-4~~~~7-9-7-9-10-9-7-|

guitar 1
e|---------|
B|---------|
G|---------|
D|-9-9-7-4-|
A|-9-9-7-4-|
D|-9-9-7-4-|

guitar 1
e|-------|
B|-------|
G|-------|
D|-99-77-|
A|-99-77-|
D|-99-77-|

e|-------------------|
B|-------------------|
G|-------------------| x3, mute after last power chord on second time
D|-4-4-4447-7779-999-|
A|-4-4-4447-7779-999-|
D|-4-4-4447-7779-999-|

e|--------------------------|
B|--------------------------|
G|--------------------------|
D|-999999997777777777777777-|
A|-999999997777777777777777-|
D|-999999997777777777777777-|


not sure about solo, but is played over:
e|------------------|
B|------------------|
G|------------------|
D|-4--------9-9-7-4-|
A|-4--------9-9-7-4-|
D|-4--------9-9-7-4-|

e|---------|
B|---------|
G|---------|
D|-9-9-7-4-|
A|-9-9-7-4-|
D|-9-9-7-4-|

e|--------------------------|
B|--------------------------|
G|--------------------------|
D|-9-9-7-4444444444444444-4-|
A|-9-9-7-4444444444444444-4-|
D|-9-9-7-4444444444444444-4-|

e|-------------------|
B|-------------------|
G|-------------------| x2, mute after last power chord on second time
D|-4-4-4447-7779-999-|
A|-4-4-4447-7779-999-|
D|-4-4-4447-7779-999-|
then
e|--------------------------------|
B|--------------------------------|
G|--------------------------------|
D|-4-4-4447-7779-9999999977777777-|
A|-4-4-4447-7779-9999999977777777-|
D|-4-4-4447-7779-9999999977777777-|

e|-------------------|
B|-------------------|
G|-------------------| x2, mute after last power chord on second time
D|-4-4-4447-7779-999-|
A|-4-4-4447-7779-999-|
D|-4-4-4447-7779-999-|
then
e|----------------------------------------|
B|----------------------------------------|
G|----------------------------------------|
D|-4-4-4447-7779-999999997777777777777777-|
A|-4-4-4447-7779-999999997777777777777777-|
D|-4-4-4447-7779-999999997777777777777777-|

outro
e|-----xxxx-----xxxx----x-x--------|
B|-----xxxx-----xxxx----x-x--------|
G|-----xxxx-----xxxx----x-x--------|
D|-2-4-xxxx-2-4-xxxx-2-4x4x-2-5555-|
A|-2-4-xxxx-2-4-xxxx-2-4x4x-2-5555-|
D|-2-4-xxxx-2-4-xxxx-2-4x4x-2-5555-|

e|------------------------------|
B|------------------------------|
G|------------------------------|
D|-2-4-xxxxx-xxxxx-xxxxx-55554~-|
A|-2-4-xxxxx-xxxxx-xxxxx-55554~-|
D|-2-4-xxxxx-xxxxx-xxxxx-55554~-|