New Medicine - Sun Goes Down Text Guitar Tab

Learn the song with the online tablature player
This Song is pretty repetive.
Im not gonna tab out where to palm mute.
I think this song is simple enough to figure out since
it has the same chords threw both the verse and Chorus. Just Listen for the patterns and changes.

Clean Rythem
E||------------------|   ||-----|
B||------------------|   ||-----|
G||--5--7--9--7------|   ||-----|
D||--3--5--7--5------|   ||--7--|Palm Mutes are on 7th Bar.
A||--3--5--7--5------|   ||--7--|
D||--3--5--7--5------|   ||--7--|

Verse
E||------------------|
B||------------------|
G||------------------|
D||--3--5--7--5------|
A||--3--5--7--5------|
D||--3--5--7--5------|

Bridge
E||------------------|
B||------------------|
G||------------------|
D||--3--5--7--10-----|  This one is alittle tricky.
A||--3--5--7--10-----|  Just listen to the Pattern for the Changes.
D||--3--5--7--10-----|

Solo
E||--------------------------------3------3h5/8--5~---|
B||-----------------------5----3h5---3h5--------------|
G||------------5h7----5h7-----------------------------|
D||-5h7----5h7----------------------------------------|
A||---------------------------------------------------|
D||---------------------------------------------------|