New Model Army - A Liberal Education Text Guitar Tab

Learn song with the online tabulature player
I am currently working on this song, this is what i figured out so far.
Enjoy it.


e------------------------------------------------------------|
b------------------------------------------------------------|
g------------------------------------------------------------|
d-----2-----2--3-----------0-------2-----2--3-----------0----|
a--0-----3--------3--0--2-------0-----3--------3--0--2-------|
e------------------------------------------------------------|

e------------------------------------------------------------|
b------------------------------------------------------------|
g------------------------------------------------------------|
d-----2-----2--3-----------0-------2-----2--3-----------0----|
a--0-----3--------3--0--2-------0-----3--------3--0--2-------|
e------------------------------------------------------------|