New Order - Elegia Text Guitar Tab

Learn the song with the online tablature player
                             Elegia - New Order.

e---------------------------------------------------------|
b---------------------------------------------------------|
g---------------------------------------------------------|
d-7~~---7--9--9—-5~~---7--9--9—2~~---7---14~~-------------|
a---------------------------------------------------------|
E---------------------------------------------------------|

e----------------------------------------------------------|
b----------------------------------------------------------|
g---------------------------------9-9-9-9-9-12-12-12-12-12-|
d-7~~---7--9--9—-5~~---7--9--10—-2~~-----------------------|
a----------------------------------------------------------|
E----------------------------------------------------------|

e---------------------------------------------------------|
b---------------------------------------------------------|
g-14-14-14-14-14--16--14--12------------------------------|
d---------------------------------------------------------|
a---------------------------------------------------------|
E---------------------------------------------------------| x2

e---------------------------------------------------------|
b---------------------------------------------------------|
g----16--14--12------------------------------9~~----------|
d-7~~------------7~~--7--9--9—-5~~-7--9--10---------------|
a---------------------------------------------------------|
E---------------------------------------------------------|

e---------------------------------------------------------|
b---------------------------------------------------------|
g--7--9-9-9-9-9-12-12-12-12-12-14-14-14-14-14--16--14—12--|
d----------------------------—----------------------------|
a---------------------------------------------------------|
E---------------------------------------------------------|

e---------------------------------------------------------|
b---------------------------------------------------------|
g---------------------------------9~~---------------------|
d--7~~--7--9--9—-5~~-5--7--9--10—-------------------------|
a---------------------------------------------------------|
E---------------------------------------------------------|

e----------------------------------------------------------|
b----------------------------------------------------------|
g-9—-7--9-9-9-9-9-12-12-12-12-12-14-14-14-14-14--16--14—12-|
d----------------------------—-----------------------------|
a----------------------------------------------------------|
E----------------------------------------------------------|

e----------------------------------------------------------|
b----------------------------------------------------------|
g----------------------------------9~~---------------------|
d--7~~-7--7--9--7—-5~~-5--7--9--10-------------------------|
a----------------------------------------------------------|
E----------------------------------------------------------|
e----------------------------------------------------------|
b----------------------------------------------------------|
g-9—-7--9-9-9-9-9-12-12-12-12-12-14-14-14-14-14--16--14—12-|
d----------------------------—-----------------------------|
a----------------------------------------------------------|
E----------------------------------------------------------|

e---------------------------------------------------------|
b---------------------------------------------------------|
g----------------------------------9~~--------------------|
d--7~~-7--7--9--7—-5~~-7--7--9--10------------------------|
a---------------------------------------------------------|
E---------------------------------------------------------|

e-----------------------------------------------------------|
b-----------------------------------------------------------|
g-9—-7--9-9-9-9-9-12-12-12-12-12-14-14-14-14-14--16--14—12--|
d----------------------------—------------------------------|
a-----------------------------------------------------------|
E-----------------------------------------------------------| x2

e---------------------------------------------------------|
b---------------------------------------------------------|
g----------------------------------9~~--------------------|
d--7~~--7--9--9—-5~~-7--7--9--10--------------------------|
a---------------------------------------------------------|
E---------------------------------------------------------|

e----------------------------------------------------------|
b----------------------------------------------------------|
g-9—-7--9-9-9-9-9-12-12-12-12-12-14-14-14-14-14--16--14—12-|
d----------------------------—-----------------------------|
a----------------------------------------------------------|
E----------------------------------------------------------|

e---------------------------------------------------------|
b---------------------------------------------------------|
g---------------------------------------------------------|
d--7~~~~~~~~~~~~------------------------------------------|
a---------------------------------------------------------|
E---------------------------------------------------------|

Second Guitar:
e----------------------------------------------------------|
b----------------------------------------------------------|
g----------------------------------------------------------|
d--7~~--7--7--9--7--9--14--12—7~~7--7--9--7--9--14--12—7~~-|
E----------------------------------------------------------|

e----------------------------------------------------------|
b----------------------------------------------------------|
g----------------------------------------------------------|
d--7—7—9--7--12~~------------------------------------------|
a----------------------------------------------------------|
E----------------------------------------------------------|
e----------------------------------------------------------|
b----------------------------------------------------------|
g----------------------------------------------------------|
d--7~~--7--7--9--7--9--14--12—-10~~10--10--12--10--12—-14~-|
E----------------------------------------------------------|

e---------------------------------------------------------|
b---------------------------------------------------------|
g---------------------------------------------------------|
d--12--10--10—12p10--12--10--10--12--14--12--10--7--------|
a---------------------------------------------------------|
E---------------------------------------------------------|