New Politics - Give Me Hope Acoustic Text Guitar Tab

Learn song with the online tabulature player
I listen this song in the different sites, searching and you will understand

Major Chords
          7-7--7-7-7-----------------------9--9----9--9--9--------------------|I
          7-7--7-7-7-----------------------9--9----9--9--9--------------------|I
in verses 8-8--8-8-8--MANY TIME...AND THEN 10-10---10-10-10-------------------|I
          9-9--9-9-9-----------------------11-11---11-11-11-------------------|I
          9-9--9-9-9-----------------------11-11---11-11-11-------------------|I
          7-7--7-7-7-----------------------9--9----9--9--9--------------------|I



          You keep me hanging on the edge of time
          You keep me hanging on the edge of time
            there playing:
-------------------------------------------------|I
-------------------------------------------------|I
-------------------------------------------------|I
9--9--9--9-11-11-11------------------------------|I
9--9--9--9-11-11-11---REPEATING------------------|I
7--7--7--7-9--9--9-------------------------------|I

                     CHORUS:
     PLAYING ONLY TOP NOTES MAJOR CHORDS


THIS IS IT^_^_^_^_^_^ Im from Ukraine and I do not know much English
ENJOY^_^