New Starting Over - Story Ending Text Guitar Tab

Learn the song with the online tablature player
             just listen carefully to the song..
             i cant find the lyrics of this song
             so i just make the tab.. GoOd LuCk...^_^

Legend: h = hammer
        p = pull off
        v = (Strumming going up)
Intro

E|---------------12h13p12h13p12h13---------------12h13p12h13p12h13-|
B|--5h6p5h6p5h6---------------------5h6p5h6p5h6--------------------|
G|-----------------------------------------------------------------|
D|-----------------------------------------------------------------|
A|-----------------------------------------------------------------|
E|-----------------------------------------------------------------|
  (Guitar 1)

E|------------------------------------------------------------|
B|-----6-6-6---6-6-6---6-6-6---6-6-6---6-6-6---6-6-6---6-6-6--|
G|--5-5-5-5-5-5-5-5-3-3-3-3-3-3-3-3-5-5-5-5-5-5-5-5-3-3-3-3---|
D|------------------------------------------------------------|
A|------------------------------------------------------------|
E|------------------------------------------------------------|
  (Guitar 2)

G|------------------------------------------------------------|
D|------------------------------------------------------------|
A|--5---------------1---------------5---------------1---------|
E|------------------------------------------------------------|
   Bass

Verse

E|--------------------------------------------|
B|--------------------------------------------|
G|--7-7v-7-7v-------------3-3v-3v-3-3v-3v-3---|
D|--7-7v-7-7v--7-7v-7v-7--3-3v-3v-3-3v-3v-3---|
A|--5-5v-5-5v--5-5v-5v-5--1-1v-1v-1-1v-1v-1---|
E|-------------5-5v-5v-5----------------------|

E|------------------------------------------|
B|------------------------------------------|
G|--7-7v-7v-7-7v-7v-7--3-3v-3v-3-3v-3v-3----|
D|--7-7v-7v-7-7v-7v-7--3-3v-3v-3-3v-3v-3----|
A|--5-5v-5v-5-5v-5v-5--1-1v-1v-1-1v-1v-1----|
E|------------------------------------------|

E|--------------------------------------------|
B|--------------------------------------------|
G|--7-7v-7-7v-------------3-3v-3v-3-3v-3v-3---|
D|--7-7v-7-7v--7-7v-7v-7--3-3v-3v-3-3v-3v-3---|
A|--5-5v-5-5v--5-5v-5v-5--1-1v-1v-1-1v-1v-1---|
E|-------------5-5v-5v-5----------------------|

E|------------------------------------------|
B|------------------------------------------|
G|--7-7v-7v-7-7v-7v-7--3-3v-3v-3-3v-3v-5----|
D|--7-7v-7v-7-7v-7v-7--3-3v-3v-3-3v-3v-5----|
A|--5-5v-5v-5-5v-5v-5--1-1v-1v-1-1v-1v-3----|
E|------------------------------------------|

Refrain

E|--------------------------------------|
B|--------------------------------------|
G|--3--------5--------7--------5--------|
D|--3(14X)---5(14X)---7(14x)---5(14x)---|
A|--1--------3--------5--------3--------|
E|--------------------------------------|

E|--------------------------|
B|--------------------------|
G|--3--------5--------7-----|
D|--3(14X)---5--------7-----|
A|--1--------3--------5-----|
E|--------------------------|

verse

E|------------------------------------------|
B|------------------------------------------|
G|--7-7v-7v-7-7v-7v-7--3-3v-3v-3-3v-3v-3----|(3x)
D|--7-7v-7v-7-7v-7v-7--3-3v-3v-3-3v-3v-3----|
A|--5-5v-5v-5-5v-5v-5--1-1v-1v-1-1v-1v-1----|
E|------------------------------------------|

E|--------------------------------------------|
B|--------------------------------------------|
G|--7-7v-7v-7-7v-7v-7--3-3v-3-3v-5-5v-5v-5----|
D|--7-7v-7v-7-7v-7v-7--3-3v-3-3v-5-5v-5v-5----|
A|--5-5v-5v-5-5v-5v-5--1-1v-1-1v-3-3v-3v-3----|
E|--------------------------------------------|

Refrain

E|--------------------------------------|
B|--------------------------------------|
G|--3--------5--------7--------5--------|
D|--3(14X)---5(14X)---7(14x)---5(14x)---|
A|--1--------3--------5--------3--------|
E|--------------------------------------|

E|----------------|
B|----------------|
G|--3--------5----|
D|--3(14X)---5----|
A|--1--------3----|
E|----------------|

Chorus

E|------------------------------------------|
B|------------------------------------------|
G|--7-7v-7v-7-7v-7v-7--5-5v-5v-5-5v-5v-5----|
D|--7-7v-7v-7-7v-7v-7--5-5v-5v-5-5v-5v-5----|
A|--5-5v-5v-5-5v-5v-5--3-3v-3v-3-3v-3v-3----|__
E|------------------------------------------|  |
                                               |(2x)
E|------------------------------------------|__|
B|------------------------------------------|
G|--3-3v-3v-3-3v-3v-3--5-5v-5v-5-5v-5v-5----|
D|--3-3v-3v-3-3v-3v-3--5-5v-5v-5-5v-5v-5----|
A|--1-1v-1v-1-1v-1v-1--3-3v-3v-3-3v-3v-3----|
E|------------------------------------------|

E|--------------------------------------------------|
B|--------------------------------------------------|
G|--7-7-7v-7v-7-7v-7v-7-7v--5-5-5v-5v-5-5v-5v-5-5v--|
D|--7-7-7v-7v-7-7v-7v-7-7v--5-5-5v-5v-5-5v-5v-5-5v--|
A|--5-5-5v-5v-5-5v-5v-5-5v--3-3-3v-3v-3-3v-3v-3-3v--|
E|--------------------------------------------------|

E|--------------------------------------------------|
B|--------------------------------------------------|
G|--7-7-7v-7v-7-7v-7v-7-7v--3-3-3v-3v-3-3v-3v-3-3v--|
D|--7-7-7v-7v-7-7v-7v-7-7v--3-3-3v-3v-3-3v-3v-3-3v--|
A|--5-5-5v-5v-5-5v-5v-5-5v--1-1-1v-1v-1-1v-1v-1-1v--|
E|--------------------------------------------------|

E|--------------------------------------------------|
B|--------------------------------------------------|
G|--7-7-7v-7v-7-7v-7v-7-7v--5-5-5v-5v-5-5v-5v-5-5v--|
D|--7-7-7v-7v-7-7v-7v-7-7v--5-5-5v-5v-5-5v-5v-5-5v--|
A|--5-5-5v-5v-5-5v-5v-5-5v--3-3-3v-3v-3-3v-3v-3-3v--|
E|--------------------------------------------------|

E|-----------------------------------------|
B|-----------------------------------------|
G|--7-7-7v-7v-7-7v-7v-7-7v--3-3-3v-3v-3-3--|
D|--7-7-7v-7v-7-7v-7v-7-7v--3-3-3v-3v-3-3--|
A|--5-5-5v-5v-5-5v-5v-5-5v--1-1-1v-1v-1-1--|
E|-----------------------------------------|

(i think this part is the adlib)

E|------------------------------------------------------|
B|------------------------------------------------------|
G|----------7-7-7v-7v-7v-7v-7----------7--3-3-3--5-5-5--|(2x)
D|--7-7-7-7-7-7-7v-7v-7v-7v-7----------7--3-3-3--5-5-5--|
A|--5-5-5-5-5-5-5v-5v-5v-5v-5--5-5-5-5-5--1-1-1--3-3-3--|
E|-----------------------------6-6-6-6------------------|

E|------------------------|
B|---------3--------------|
G|-----2-3--2-3-3-2-------|
D|--0-0-0-0---------------|
A|------------------------|
E|------------------------|

E|----1--1--1-1-1---1--1--1-1-1---1--1--1-1-1--1---|
B|-----1--1--1-1-----1--1--1-1-----1--1--1-1---1---|
G|------3--3----------3--3----------3--3-------3---|
D|---------------------------------------------3---|
A|--1-------------3-------------1------------------|
E|-------------------------------------------------|

Verse

E|----1--1--1-1-1---1--1--1-1-1---1--1--1-1-1---1--1--1-1-1--|
B|-----1--1--1-1-----1--1--1-1-----1--1--1-1-----1--1--1-1---|
G|------3--3----------3--3----------3--3----------3--3-------|
D|------------------------------0----------------------------|
A|--1-------------3---------------------------3--------------|
E|-----------------------------------------------------------|

E|----1--1--1-1-1-----------------------------|
B|-----1--1--1-1----------------5h6p5h6p5h6---|
G|------3--3-------5--------------------------|
D|-----------------5--------------------------|
A|--1--------------3----3---3-----------------|
E|--------------------3---3---3---------------|

(Repeat Chorus)

E|------------------------------------------------------|
B|------------------------------------------------------|
G|----------7-7-7v-7v-7v-7v-7----------7--3-3-3--5-5-5--|(2x)
D|--7-7-7-7-7-7-7v-7v-7v-7v-7----------7--3-3-3--5-5-5--|
A|--5-5-5-5-5-5-5v-5v-5v-5v-5--5-5-5-5-5--1-1-1--3-3-3--|
E|-----------------------------6-6-6-6------------------|

E|-----------------------------------------------|
B|-----------------------------------------------|
G|---------------------------------3-3-3--5-5-5--|(2x)
D|--7-7--7-7--7-7--7-7--7-7--7-7---3-3-3--5-5-5--|
A|--5-5--5-5--5-5--5-5--5-5--5-5---1-1-1--3-3-3--|
E|--5-5--5-5--5-5--5-5--5-5--5-5-----------------|