New Years Day - Two In The Chest One In The Head Text Guitar Tab

Learn song with the online tabulature player
Two In The Chest, One In The Head by New Years Day

INTRO:
e|-------------------|
B|-------------------|
G|-------------------|
D|-037-7--037706-3-3-| X4
A|-037-7--037706-3-3-|
D|-037-7--037706-3-3-|

VERSE:
e|-------------------|
B|-------------------|
G|-------------------|
D|-------------------| X2
A|-------------------|
D|-037-7--037706-3-3-|
   ... .  ...... . . 

e|-------------------|
B|-------------------|
G|-------------------|
D|-037-7--037706-3-3-| X2
A|-037-7--037706-3-3-|
D|-037-7--037706-3-3-|

e|-------------------|
B|-------------------|
G|-------------------|
D|-------------------| X2
A|-------------------|
D|-037-7--037706-3-3-|
   ... .  ...... . . 

e|---------|
B|---------|
G|---------|
D|-0~--0-0~|
A|-0~--0-0~|
D|-0~--0-0~|

CHORUS:
e|-----------------------------------------|
B|-----------------------------------------|
G|--------5-------------5-------------0----|
D|-10--3--5--0-7-10--3--5--0-7-8--10--5--0~| (I didn't draw at the strum patterns, obviously)
A|--8--3--3--0-7--8--3--3--0-7-8--10--4--0~|
D|--8--3-----0-7--8--3-----0-7-8--10-----0~|

BRIDGE:
e|-------------------------------|
B|-------------------------------|
G|-------------------------------| X4
D|-------------------------------|
A|-------------------------------|
D|-0-0-7-0-0-7-0-0-6-0-0-5-0-0-3-|