New Years Day - Youll Only Make It Worse Text Guitar Tab

Learn the song with the online tablature player
For your questions or suggestions,just post in friendster comment,PM or mail me.

Gtr.Legends:
/ - slide
p - pull-off
h - hammer-on
~ - let it ring
x - dead string
^ - pick up(on-off)

Intro
Gtr.1
e|--------------------------------------|
B|--------------------------------------|
G|-----------------99-------------------|
D|-0000000-5555555-xx-7777-9999-55555---|
A|-0000000-5555555-77-7777-9999-55555---|
D|-0000000-5555555----7777-9999-55555---|

Gtr.2
e|--------------------------------------------------------------------------------------------------|
B|---10-8\7--8p7-8p7-10~-----10-8\7--8p7-8p7-7~-----10-8\7--8p7-8p7-10~-----10-8\7--12-10-8-10-7~---|
G|-7-----------------------7----------------------7-----------------------7-------------------------|
D|--------------------------------------------------------------------------------------------------|
A|--------------------------------------------------------------------------------------------------|
D|--------------------------------------------------------------------------------------------------|

Verse 1
I'm sorry that I...
e|-----------------------------------------------------|
B|-----------------------------------------------------|
G|-----------------------------------------------------|
D|-0^^^---5^^^-----------0^^^---5^^^--7777-9999-5555---|
A|-0^^^---5^^^-----------0^^^---5^^^--7777-9999-5555---|
D|-0^^^---5^^^--Bass-----0^^^---5^^^--7777-9999-5555---|
                                      .... .... ....

Pre-Chorus
I should have...
e|-------------------------------------------------|
B|-------------------------------------------8-7---|
G|--------------7h9-7-6----------------------9-7---|
D|-55-77--9-7-5----------7-9--99-77--7-5-77--------|
A|-55-77--9-7-5---------------99-77--7-5-77--------|
D|-55-77--9-7-5---------------99-77--7-5-77--------|
                                             . .

Chorus
If the world froze...
Play Intro(Gtr.1 Only)

Verse 2
I'm sorry that I...
Play Verse 1

Repeat Pre-Chorus:

Repeat Chorus:

Bridge prt.1:
e|-----------------------------------------      ----------------------------|
B|-----------------------------------------      ----------------------------|
G|----------------------------------------- 3x   -7-7-7-7-7-7--11-11-11-11---|
D|---7-5/4-5p4-5p4b~----7-5/4-5p4-5p4------ Then -x-x-x-x-x-x---x--x--x--x---|
A|-5------------------5---------------5b~--      -5-5-5-5-5-5---9--9--9--9---|
D|-----------------------------------------      ----------------------------|
                                                  . . . . . .   .  .  .  .

Bridge prt.2:If the world froze...
e|-2~--0~--0-----3~---3~-----------------------------------------|
B|-3~--3~----3~--3~---3~-----------------------------------------|
G|-2~--2~--------2~---0~-------------------7h9-7-6---6-7h9-7-6---|
D|-0~--0~--------0~--------99-77--7-5-77-----------7-------------|
A|-------------------------99-77--7-5-77-------------------------|
D|-------------------------99-77--7-5-77-------------------------|

Repeat Chorus:

Last Chord:
e|------|
B|------|
G|------|
D|-0~---|
A|-0~---|
D|-0~---|

End

You'll Only Make It Worse LyricsL

Verse 1
I'm sorry that I loved you,
I'm sorry that I cared,
I'm sorry that I played the games you did,
They never got us anywhere.
I'm sorry if this hurts you,
I'm sorry I just lied,
The truth is, I don't care if you get hurt or not,
For all the tears you've made me cry

Pre-Chorus
I should have known we'd never get anywhere,
Can't fall in love when you're falling apart,
Can't make amends if you're only making mistakes,
And empty words can't fix a broken heart

Chorus
If the world froze over and everybody died,
And you and I were the only ones alive,
I'd say, "I'm sorry you made it, it's more then you deserve,
Don't try to make it better, you'll only make it worse

Verse 2
I'm sorry that you miss me,
I'm sorry I don't care,
I was just a crutch for your lonliness,
Your heart was never really there,
I'm sorry that I wasted so much of my time,

Time I could have spent with someone else would have meant,
Less of you and all your lies,
You'll only make it,
You'll only make it worse

Bridge
If the world froze over,
And only I survived,
I'd sing these words at your funeral,
"It's good to be alive