Newsboys - Believe Text Guitar Tab

Learn the song with the online tablature player
INTRO
Pete & Jody
Asus  A  Asus--2x
Pete
Em  D  G  Em  D  G--2x

Jody
With Slide
---------------------------------------------|
---------------------------------------------|
-12-11---12---14----7------12-11----12----14-|
---------------------------------------------|
---------------------------------------------|

VERSE1
Bass Line Plays:
Bm  G  D  A
Bm  G  D  A
Bm  G  D
A   Bm G
D   A  Asus  A

Jody Palm Mute

-2--2--2--2--2--2--2--2--3--3?-3--------|
--3--3--3--3--3--3--3--3--3?-3--3?------|
----------------------------------------|
----------------------------------------|
----------------------------------------|
----------------------------------------|

2--2--2--2--2--2--2--2--3--3--5--5------|
-3--3--3--3--3--3--3?-3--3--3--3--3-----|
----------------------------------------|
----------------------------------------|
----------------------------------------|
----------------------------------------|

CHORUS
Pete
Em  D  G  Em  D  G

Jody
With Slide
---------------------------------------------|
---------------------------------------------|
-12-11---12---14----7------12-11----12----14-|
---------------------------------------------|
---------------------------------------------|

Pete & Jody
Asus  A  Asus A

Verse 2
Bass Line Plays:
Bm  G  D  A
Bm  G  D  A
Bm  G  D
A   Bm G
D   A  Asus  A

Jody Palm Mute

-2--2--2--2--2--2--2--2--3--3?-3--------|
--3--3--3--3--3--3--3--3--3?-3--3?------|
----------------------------------------|
----------------------------------------|
----------------------------------------|
----------------------------------------|

2--2--2--2--2--2--2--2--3--3--5--5------|
-3--3--3--3--3--3--3?-3--3--3--3--3-----|
----------------------------------------|
----------------------------------------|
----------------------------------------|
----------------------------------------|

CHORUS
Pete
Em  D  G  Em  D  G

Jody
With Slide
---------------------------------------------|
---------------------------------------------|
-12-11---12---14----7------12-11----12----14-|
---------------------------------------------|
---------------------------------------------|

Asus A   Asus  A

BRIDGE

Pete
C    G     D

Jody
With Slide
---------------------------------------------|
---------------------------------------------|
-12-11---12---14----7------12-11----12----14-|
---------------------------------------------|
---------------------------------------------|

Jody Solo
-|---------------------------------------------------------------|
-|---------------------------------------------------------------|
-|------2/4----2-2-2---4--------------2/4-----7-9----------------|
-|----------------------4--2---0--------------------5/4----2-----|
-|---------------------------------------------------------------|
-|---------------------------------------------------------------|

CHORUS
Pete
Em  D  G  Em  D  G

Jody
With Slide
---------------------------------------------|
---------------------------------------------|
-12-11---12---14----7------12-11----12----14-|
---------------------------------------------|
---------------------------------------------|

Outro

Asus A   Asus  A  Asus A
 A     D